Home » J » Join The Club »

Join The Club - Handog Tabs

Artists:  A B C D E F G H I J K L M N O P Q R S T U V W X Y Z # 

Handog Tabs

(ver. 3) Click to play this song!
Join The Club
----------------------------------------------------------------------------
                             Handog - Join The Club
----------------------------------------------------------------------------

Tuning:EADGBe

Share ko lang yung work ko...intro at solo lang...gamitin nyo na lang yung chords ng 
tab sa site na 'to kc nung kinapa ko 'to nagulat ako na pareho yung chords na nakapa ko sa 
naunang tab dito, naiba lang sa chorus. Thanx! Peace out!


INTRO:
e|-----------7~--------------------------------------------7~--------------|
B|--7--8-----8~--10--8--7--8--10-----10--8--7-----7--8-----8~--10--8--7~-8-|
G|--------9--9~-------------------7~--7--------9--------9--9~--------------|
D|-------------------------------------------------------------------------|
A|-------------------------------------------------------------------------|
E|-------------------------------------------------------------------------|

e|-------------------------------------------------------------------------|
B|--10-----10--8--7--8~-----/8-8-8-8-8-8-8-8-8-8-8-8-8-8-------------------|
G|------7--7---------------------------------------------------------------|
D|-------------------------------------------------------------------------|
A|-------------------------------------------------------------------------|
E|-------------------------------------------------------------------------|


SOLO:
e|-----------7----------------------------------9--------------------------|
B|--7--8-----8--11--10--8--------8--8---10--10----11-10--8---8------8------|
G|--------9--9-------------9--10--------------------------------11-----10--|
D|-------------------------------------------------------------------------|
A|-------------------------------------------------------------------------|
E|-------------------------------------------------------------------------|

e|------------------------------------------------------11--12--11---------|
B|-----------------------11---------8--8--10--10--8--7--------------11--10-|
G|--11--9--11--8--10--7------9--10-----------------------------------------|
D|-------------------------------------------------------------------------|
A|-------------------------------------------------------------------------|
E|-------------------------------------------------------------------------|

e|------------------------------------/--\-----/--\-----/---\------/---\---|
B|--8--9--8--10--9--10--10/11--10--9--8--8--8--9--9--8--10--10--8--11--11--|
G|-------------------------------------------------------------------------|
D|-------------------------------------------------------------------------|
A|-------------------------------------------------------------------------|
E|-------------------------------------------------------------------------|


I know this is not the best but i hope it helps.

| /  slide up
| \  slide down
| ~  vibrato
| /  \ Bend Note then Half
  8  8
============================================================================
            
Submit corrections

↑ Back to top | Tablatures and chords for acoustic guitar and electric guitar, ukulele, drums are parodies/interpretations of the original songs. You may use it for private study, scholarship, research or language learning purposes only