» » »

Join The Club - Nobela Bass

Artists:  A B C D E F G H I J K L M N O P Q R S T U V W X Y Z # 

Nobela Bass

(ver. 1) Click to play this song!
Join The Club
 Rating:
4.2/5 (5 votes)

 Nobela lessons Tabs too difficult? Try these video lessons and learn fast
 
                Join The Club

Intro 
G|---------------------------------|-----------------------------------|
D|-----------------6-6-6-6-6-6-6-6-|-----------------6-6-6-6-6-6-6-6---|
A|-6-6-6-6-6-6-6-6-----------------|-6-6-6-6-6-6-6-6-------------------|
E|---------------------------------|---------------------------------4-|

Verse1 
G|--------|----------------------------------------------------------|
D|--------|----------------------------------------------------------|
A|--------|-6--6-6--6---------6--6-6--6---------6--6-6--6------------|
E|--------|----------4--4-4--4---------4--4-4--4---------4--4-4--4-6-|

G|-------------------------------------------------------------------------|
D|-------------------------------------------------------------------------|
A|----------6--6-6--6---------6--6-6--6---------6--6-6--6--4-4-4-4-4-4-4-4-|
E|-4--4-4--4---------4--4-4--4---------4--4-4--4---------------------------|

G|-----------|
D|-----------|
A|-----------|
E|-6-6-6-6-6-|

Chorus1 
G|-------------------------------------------------------------------|
D|----------------------------------5-5-5-5-5-5-5-5------------------|
A|---------------------------------------------------3-3-3-3-3-3-3-3-|
E|-4-4-4-4-4-4-4-4--6-6-6-6-6-6-6-6----------------------------------| 2x

G|--------------------------------------------------------------------|
D|--------------------------------------------------------------------|
A|--------------------------------------------------------------------|
E|-4-4-4-4-4-4-4-4--4-4-4-4-4-4-4-4--4-4-4-4-4-4-4-4--6-6-6-6-6-6-6-6-|

Verse2
G|--------|----------------------------------------------------------|
D|--------|----------------------------------------------------------|
A|--------|-6--6-6--6---------6--6-6--6---------6--6-6--6------------|
E|--------|----------4--4-4--4---------4--4-4--4---------4--4-4--4-6-|

G|-------------------------------------------------------------------------|
D|-------------------------------------------------------------------------|
A|----------6--6-6--6---------6--6-6--6---------6--6-6--6--4-4-4-4-4-4-4-4-|
E|-4--4-4--4---------4--4-4--4---------4--4-4--4---------------------------|

G|---------------|
D|---------------|
A|---------------|
E|-6-6-6-6-6--6\-|

Repeat chorus 

Adlib
G|-------------------------------------------------------------------------|
D|-------------------------------------------------------------------------|
A|-4--4-4--4-6--6-6--6-------------------4--4-4--4-6--6-6--6---------------|
E|--------------------4--4-4--4-3--3-3--3-------------------4--4-4--4-3--3-|

G|------------------------------------------------------------------|
D|----------------------------------3-3-3-3-3-3-3-3-----------------|
A|--------------------------------------------------1-1-1-1-1-1-1-1-|
E|-2-2-2-2-2-2-2-2--4-4-4-4-4-4-4-4---------------------------------|

G|------------------------------------------------------------------|
D|------------------------------------------------------------------|
A|------------------------------------------------------------------|
E|-2-2-2-2-2-2-2-2-2-2-2-2-2-2-2-2--4-4-4-4-4-4-4-4-4-4-4-4-4-4-4-4-|

Verse3        bawat sandali na lang
G|----------|----------------------------------|
D|----------|----------------------------------|
A|--pause---|----------------------------------|
E|----------|-2-2-2-2-2-2-2-2--4-4-4-4-4-4-4-4-|

Chorus (outro)
G|------------------------------------------------------------------|
D|----------------------------------3-3-3-3-3-3-3-3-----------------|
A|--------------------------------------------------1-1-1-1-1-1-1-1-|
E|-2-2-2-2-2-2-2-2--4-4-4-4-4-4-4-4---------------------------------|2x

G|-----------------------------------------------------------------|
D|-----------------------------------------------------------------|
A|-----------------------------------------------------------------|
E|-2-2-2-2-2-2-2-2-2-2-2-2-2-2-2-2--1-1-1-1-1-1-1-1--4-4-4-4-4-4-4-|
            
Submit corrections


        Nobela lessons Hard to play? Try these video lessons and learn fast Nobela lessons
        
↑ Back to top | Tablatures and chords for acoustic guitar and electric guitar, ukulele, drums are parodies/interpretations of the original songs. You may use it for private study, scholarship, research or language learning purposes only