Home » J » Join The Club »

Join The Club - Handog Tabs

Artists:  A B C D E F G H I J K L M N O P Q R S T U V W X Y Z # 

Handog Tabs

(ver. 2) Click to play this song!
Join The Club
intro-  EM7 Em7  Ebm7 Gm7   EM7  Em7        Ebm7     Gm7
guitar1
e|------------------------------------------------|
b|------------------------------------------------|
g|------------------------------------------------|2x
D|-1111111111-222222222-111111111-55555555--------|
A|-2222222222-222222222-111111111-55555555--------|
E|-0000000000-000000000-xxxxxxxxx-33333333--------|


guitar2
e-------------------------------------------------------------------------|
b-------2/4b-------------------------------2/4----------------------------|
g-3-4-------6-4-3-4-6---4/6--4-3----3-4-4------6-4-3-4-6---4/6-4-3--------|
d-----6---------------4----------6-----------------------4----------------|
a-------------------------------------------------------------------------|
D-------------------------------------------------------------------------|


verse-

rhthym
   Palm Muted
e|------------------------------------|
b|------------------------------------|
g|--6666666666666666666---------------|
D|--6666666666666666666---------------|
A|--4444444444444444444---------------|
E|------------------------------------|


lead guitar

e|------------------------------------|
b|--4--------4-------4----------------|
g|-----6-7-6---6-7-6----6-7-6---------|
D|------------------------------------|continuous
A|------------------------------------|
D|------------------------------------|


refrain-
guitar 2
e|----------------------------------------------------|
b|----------------------------------------------------|
g|-----------------------666666666666-----------------|
D|-111~-666~-111~-666~---666666666666-----------------|continuous
A|-111~-666~-111~-666~---444444444444-----------------|
D|-111~-666~-111~-666~--------------------------------|

repeat verse

Chorus-

do chords

     F#M7     F#m7        Fm7
Tatanda at lilipas din ako
       A#m7        F#M7
Ngunit mayrong awiting
  F#m7        Fm7     A#m7
Iiwanan sa inyong alaala
   F#M7 F#m7      G#  C#9
Dahil minsan, tayo'y nagkasama.

repeat verse-
C#9
Parang kailan lang
                C#9
Ang mga awitin ko ay ayaw pakinggan
C#9
Dahil sa inyo
                  C#9
Narinig ang isip ko at naintindihan
             D#m         G#
Dahil dito'y ibig ko kayong ituring
D#m          G#      C#9    #C7
Na matalik kong kaibigan.

adlib-
Guitar1
guitar
e|------------------------------------------------|
b|------------------------------------------------|
g|------------------------------------------------|2x
D|-333333-444444-333333-888888--------------------|
A|-444444-444444-333333-888888--------------------|
E|-222222-222222-111111-666666--------------------|

e|------------------------------------------------|
b|------------------------------------------------|
g|-----------------------666666-------------------|
D|-333333-444444--666666-666666-------------------|
A|-444444-444444--666666-444444-------------------|
E|-222222-222222--444444--------------------------|



e----------------------------------------------------------------------------|
b--------7/9----------------------------9------------------------------------|
g--5-6--------11-10-8-------8-8-10-10-----11-10-8-8----8---------------------|
d------6--------------10-11-------------------------11---10-11-10-11-8-10-6--|
a----------------------------------------------------------------------------|
E----------------------------------------------------------------------------|

e-----------------------------9-8-6-----------------------------------11-88-|
b----6-7-6---6/4----------6-7-------6-----6----9-6------7/9-7-6---7/9-------|
g6-8-------6----5--6-5-6--------------6-8---6---------8---------8-----------|
d---------------------------------------------------------------------------|
a---------------------------------------------------------------------------|
e---------------------------------------------------------------------------|

Repeat Chorus
guitar1&2
e|------------------------------------------------|
b|------------------------------------------------|
g|------------------------------------------------|2x
D|-333333-444444-333333-888888--------------------|
A|-444444-444444-333333-888888--------------------|
E|-222222-222222-111111-666666--------------------|

e|------------------------------------------------|
b|------------------------------------------------|
g|-----------------------666666-------------------|
D|-333333-444444--666666-666666-------------------|
A|-444444-444444--666666-444444-------------------|
E|-222222-222222--444444--------------------------|


end with
e|--------------|
b|--------------|
g|-5~-----------|
D|-5------------|
A|-3------------|
E|--------------|


or

made in Lucena City
            
Submit corrections

↑ Back to top | Tablatures and chords for acoustic guitar and electric guitar, ukulele, drums are parodies/interpretations of the original songs. You may use it for private study, scholarship, research or language learning purposes only