Home » J » Join The Club »

Join The Club - Handog Tabs

Artists:  A B C D E F G H I J K L M N O P Q R S T U V W X Y Z # 

Handog Tabs

(ver. 1) Click to play this song!
Join The Club
(Intro)

          Paki rate nAlAng pO ,para sa comments no Bad Words plz. .

Tuning:Eadgbe

Intro: F-Em-F-Em-Am-Dm-F-G
nOTE:uNG chords sa Chorus parEho lang nG sA intrO.  ung chords sa verse C ung start 
lang kapain yan....

          F                        Em
e|------------12-----------------------------------------------------------|
B|-12--13--------15-13-12--12h13---15--------------------------------------|
G|--------14--------------------------12-----------------------------------|
D|-------------------------------------------------------------------------|
A|-------------------------------------------------------------------------|
E|-------------------------------------------------------------------------|

                          F
e|-------------------------------------------------------------------------|
B|-15-13-12------12--13----------------------------------------------------|
G|-----------14----------14------------------------------------------------|
D|-------------------------------------------------------------------------|
A|-------------------------------------------------------------------------|
E|-------------------------------------------------------------------------|

                        Em        Am
e|--12---------------------------------------------------------------------|
B|-----15-13-12---13-15----13/15-13-12-13----------------------------------|
G|----------------------12-------------------------------------------------|
D|-------------------------------------------------------------------------|
A|-------------------------------------------------------------------------|
E|-------------------------------------------------------------------------|

   Dm                 F         G
e|-------------------------------------------------------------------------|
B|-12h13----13/-----14-13----12----12-15-15-13-----------------------------|
G|-------14---------------------12-----------------------------------------|
D|-------------------------------------------------------------------------|
A|-------------------------------------------------------------------------|
E|-------------------------------------------------------------------------|


| /  slide up
| \  slide down
| h  hammer-on
| p  pull-off
| ~  vibrato
| +  harmonic
| x  Mute note
===============================================================================
            
Submit corrections

↑ Back to top | Tablatures and chords for acoustic guitar and electric guitar, ukulele, drums are parodies/interpretations of the original songs. You may use it for private study, scholarship, research or language learning purposes only