Home » J » Join The Club »

Join The Club - Dekada Tabs

Artists:  A B C D E F G H I J K L M N O P Q R S T U V W X Y Z # 

Dekada Tabs

(ver. 1) Click to play this song!
Join The Club
Intro:
Guitar1
EM7 BM7 2X


e|------------------------------------------|
b|------------------------------------------|
g|-------11-9-8b----------------------------|
D|-9~-9~----------9p6h9~-9h11---------------|
A|-----------------------------9~-----------|
E|------------------------------------------|

e|------------------------------------------|
b|------------------------------------------|
g|-----11-9-8b------------------------------|
D|------------9p6h9~-9h11-/13~--------------|
A|-9~-9-------------------------------------|
E|------------------------------------------|

 VERSE-
Guitar1 -DO CHORDS
e|-00000-----------|---22222-------|
b|-00000-----------|---44444-------|
g|-11111-----------|---33333-------|
D|-11111-----------|---44444-------|4x
A|-11111-----------|---22222-------|
E|-00000-----------|---------------|

Guitar2
e|------------|--------------------|
b|------------|--------------------|
g|---8~-------|------3~------------|
D|--9~--------|-----4~-------------|4x
A|-7~---------|----2~--------------|
E|------------|--------------------|
 
Extra..paningit hehehe...
e|------------|----------------6~----|
b|------------|------------------7~--|
g|------------|----------------------|
D|------------|----------------------|4x
A|------------|----------------------|
E|------------|----------------------|


EM7                                   BM7
Magdamag mag-isa, umalis para lang malibang
EM7                                   BM7
Kunsabagay nasanay na rin ako sa kalungkutan
EM7                                   BM7
Pahintulot naman, sana ay wag ka ng maalala
EM7                                   BM7
Dahil ang totoo ako ay manhid na sa iyo

[Chorus]
Guitar1 
e|-00000-----------|---22222-------|
b|-00000-----------|---44444-------|
g|-11111-----------|---33333-------|
D|-11111-----------|---44444-------|3x
A|-22222-----------|---22222-------|
E|-00000-----------|---------------|

e|-44444----------|---222222-------|
b|-55555----------|---444444-------|
g|-44444----------|---333333-------|
D|-66666----------|---444444-------|3x
A|-44444----------|---222222-------|
E|----------------|----------------|

Guitar2
e|------------------------------------------|
b|------------------------------------------|
g|-9~-----11~-------13~---------------------|
D|-----------------------13~----------------|4x
A|------------------------------------------|
E|------------------------------------------|


extraGuitar
  After Guitar 2
e|---------------------------------|
b|---------------------------------|
g|---------------------------------|
D|3h4p3h4p3h4p3h4p3h4p3h6----------|
A|---------------------------------|
E|---------------------------------|

EM7                       BM7
Nakalimutan ko na ba magmahal
EM7                       BM7
Ang kabiguan ko ba ang dahilan
EM7                       BM7
Ilang ulit man na ako’y nasaktan
C#m7                      BM7
Ay di mawaglit kahit pa sandali

verse2

EM7                                  BM7
Pag-uwi ko ng bahay, walang nadatnang sinuman
EM7                                  BM7
Kaybilis pala ng oras at di ko na namalayan
EM7                                  BM7
May mga bagay na sadyang di ko na maunawaan
EM7                                  BM7
Ang huling paraan, talikuran ang nakaraan

[repeat Chorus]

[BridgE]
e|-44444----------|---22222-------|
b|-55555----------|---44444-------|
g|-44444----------|---33333-------|
D|-66666----------|---44444-------|3x
A|-44444----------|---22222-------|
E|----------------|---------------|
C#m7                             BM7
Pagkat ako katulad mo, nalulumbay din
C#m7                             BM7
At di lang maintindihan kung minsan
C#m7                          BM7
Wag nang ipakita pa itong pagluha
C#m7                         BM7
Ayoko man lumimot ay kailangan


adlib 2x
Guitar 1
G#-C#m-Am-E
G#-C#m-Am-Eb


Guitar2
e|------------------------------------------|
b|------------------------------------------|
g|-------13-11-9/11~--989--/11~--989--/13~--|
D|-10-10------------------------------------|
A|------------------------------------------|
E|------------------------------------------|

e|------------------------------------------|
b|------------------------------------------|
g|-------13-11-9/11~--989--/11~--989--/12~--|
D|-10-10------------------------------------|
A|------------------------------------------|
E|------------------------------------------|

[repeat Bridge]

[repeat Chorus til fade]
            
Submit corrections

↑ Back to top | Tablatures and chords for acoustic guitar and electric guitar, ukulele, drums are parodies/interpretations of the original songs. You may use it for private study, scholarship, research or language learning purposes only