Home » J » Johnny Cash »

Johnny Cash - Cry Cry Cry Tabs

Artists:  A B C D E F G H I J K L M N O P Q R S T U V W X Y Z # 

Cry Cry Cry Tabs

(ver. 3) Click to play this song!
Johnny Cash
Writer:Luther Perkins & Johnny Cash

This is the solo that Luther Perkins plays in the middle of the song.
The first half of this solo is palm muted, but the last half is picked
open.

Intro:
e------------------------------------|
B------------------------------------|
G------------------------------------|
D------------------3-0---------------|
A------0-1-1-1-1-1--------0----------|
E-1-3------------------3----0--3-2-0-|

Solo:
e-----------------------------------------------------|
B-----------------------------------------------------|
G-----------------------------------------------------|
D-------------------------------------------1-1-------|
A-----0-1-----0-1-----0-1------0-1---2-2-2-----2------|
E-1-3-----1-3-----1-3------1-3-------------------3-0--|
PM----------------------------------------------------|
            
Submit corrections

↑ Back to top | Tablatures and chords for acoustic guitar and electric guitar, ukulele, drums are parodies/interpretations of the original songs. You may use it for private study, scholarship, research or language learning purposes only