» » »

John Legend - Refuge Tabs

Artists:  A B C D E F G H I J K L M N O P Q R S T U V W X Y Z # 

Refuge Tabs

(ver. 2) Click to play this song!
John Legend
 Rating:
4/5 (4 votes)

 Refuge lessons Tabs too difficult? Try these video lessons and learn fast
 
                (Intro)
e--------5-----------7----------|
b--7--------7--8--------8-----8-|
g-----7-----------7--------7----|
d-------------------------------|
a-------------------------------|
E-------------------------------|

e--5--0--9--5--------7----------|
b--------------8--------8-----8-|
g-----------------7--------7----|
d-------------------------------|
a-------------------------------|
E-------------------------------|
            
Submit corrections


        Refuge lessons Hard to play? Try these video lessons and learn fast Refuge lessons
        
↑ Back to top | Tablatures and chords for acoustic guitar and electric guitar, ukulele, drums are parodies/interpretations of the original songs. You may use it for private study, scholarship, research or language learning purposes only