» » »

John Legend - All Of Me Tabs

Artists:  A B C D E F G H I J K L M N O P Q R S T U V W X Y Z # 

All Of Me Tabs

(ver. 1) Click to play this song!
John Legend
 Rating:
3.3/5 (3 votes)

 All Of Me lessons Tabs too difficult? Try these video lessons and learn fast
 
                Tuning: EADGBe

Guitar 1 play's this riff   F5 - Db - Ab - Eb

e|---------------------------------------------------------------------------|
B|---------------------------------------------------------------------------|
G|----------------------------------------6--------6---------6---------------|
D|-----------3--------3--------3----------6--------6---------6---------------|
A|-----------3--------3--------3----------4-4-4-4--4--4-4-4--4--4------------|
E|-----------1-1-1-1--1-1-1-1--1--1---------x-x-x-----x-x-x-----x------------|
               x x x    x x x     x


e|---------------------------------------------------------------------------|
B|---------------------------------------------------------------------------|
G|------------------------------------8----------8---------8-----------------|
D|--6---------6---------6-------------8----------8---------8-----------------|
A|--6---------6---------6-------------6--6-6-6---6--6-6-6--6--6--------------|
E|--4--4-4-4--4--4-4-4--4--4-------------x-x-x------x-x-x-----x--------------|
       x x x     x x x     x


Gtr. 2 

Verses  [John's singing]

e|---------------------------------------------------------------------------|
B|---------------------------------------------------------------------------|
G|---------------------------------------------------------------------------|            
D|--x-x-x-x---8/10-10-10p-8-h10---10-p 8-------------------------------------|    <-      
A|-----------------------------------------11--11----------------------------|             
E|---------------------------------------------------------------------------|

e|---------------------------------------------------------------------------|
B|---------------------------------------------------------------------------|
G|---------------------------------------------------------------------------|    <-
D|---8/10-10-10p-8-h10---10-p-8----------------------------------------------|
A|--------------------------------11--11-------------------------------------|           \
E|---------------------------------------------------------------------------|               2 times

e|---------------------------------------------------------------------------|           /
B|---------------------------------------------------------------------------|
G|---------------------------------------------------------------------------|
D|-8/10--11--10------------10-h-11---11-p-10---------------------------------|     <-
A|---------------11----11----------------------11----------------------------|
E|---------------------------------------------------------------------------|

e|---------------------------------------------------------------------------|
B|---------------------------------------------------------------------------|
G|---------------------------------------------------------------------------|     
D|----------------10\8-------------------------------------------------------|     <-
A|---11--11/13----------8~----------------------------------------------------|
E|---------------------------------------------------------------------------|

Bridge:

e|---------------------------------------------------------------------------|
B|---------------------------------------------------------------------------|
G|--6---8/10--8--------------------------------------------------------------|
D|---------------11--10--8---8--6--6/10--8-----------------------------------|
A|-------------------------------------------11---8--------------------------|
E|---------------------------------------------------------------------------|

e|---------------------------------------------------------------------------|
B|---------------------------------------------------------------------------|
G|--10--10--8----------------------------------------------------------------|
D|-------------11--10--10---8-\-6-----6-/-8~---------------------------------|
A|---------------------------------------------------------------------------|
E|---------------------------------------------------------------------------|            
Submit corrections


        All Of Me lessons Hard to play? Try these video lessons and learn fast All Of Me lessons
        
↑ Back to top | Tablatures and chords for acoustic guitar and electric guitar, ukulele, drums are parodies/interpretations of the original songs. You may use it for private study, scholarship, research or language learning purposes only