» » »

John Legend - Everybody Knows Tabs

Artists:  A B C D E F G H I J K L M N O P Q R S T U V W X Y Z # 

Everybody Knows Tabs

(ver. 1) Click to play this song!
John Legend
 Rating:
4.2/5 (5 votes)

 Everybody Knows lessons Tabs too difficult? Try these video lessons and learn fast
 
                This is my first tab.....so yeahhhhhh.....i dont have the bridge yet, but ill get it....

VERSE:
              "it get harder every everyday..."
e|---------------------------------------------------------|
B|--------------------------------------4-----4-----4------|
G|--------------5-----5-----5-----------3-----3-----3------|
D|--------------6-----6-----6-----------5-----5-----5------|
A|--------------6-----6-----6-----3--3-----3-----3------3--|
E|--------4--4-----4-----4-----4---------------------------|

-----------------------------------------------------------|
-------6-----6-----6------------8-----8-----8--------------|
-------6-----6-----6------------8-----8-----8--------------|  X2
-------6-----6-----6------------8-----8-----8--------------|
-4--4-----4-----4-----4---6--6-----6-----6-----6-----------|
-----------------------------------------------------------|

CHORUS:
              "and i hope one day you'll see...."
e|----------------------------------------------------------|
B|---------6-----6-----6------------8-----8-----8-----------|
G|---------6-----6-----6------------8-----8-----8-----------|
D|---------6-----6-----6------------8-----8-----8-----------|
A|---4--4-----4-----4-----4---6--6-----6-----6-----6--------|
E|----------------------------------------------------------|

------------------------------------------------------------|
-----------------------------------4-----4-----4------------|
-----------5-----5-----5-----------3-----3-----3------------|
-----------6-----6-----6-----------5-----5-----5------------|
-----------6-----6-----6-----3--3-----3-----3------3--------|
-----4--4-----4-----4-----4---------------------------------|

------------------------------------------------------------|
---------6-----6-----6------------8-----8-------------------|
---------6-----6-----6------------8-----8-------------------|
---------6-----6-----6------------8-----8-------------------|
---4--4-----4-----4-----4---6--6-----6----------------------|
------------------------------------------------------------|

Then it goes back to the verse chords, but at the end of the verse....the chords in the
go like this...

 "one more try (one more try)......"   "cuz everybody knows, but nobody..."
e|---------1--1--1--1----1--1--1--1-----------------------------------------|
B|---------2--2--2--2----1--1--1--1------------6------------8---------------|
G|---------3--3--3--3----1--1--1--1------------6------------8---------------|
D|---------3--3--3--3----3--3--3--3------------6------------8---------------|
A|---------1--1--1--1----3--3--3--3------------4------------6---------------|
E|-----------------------1--1--1--1-----------------------------------------|


then you just repeat......
sorry for not having the bridge, but ill get it on here when i get it....
sorry for being so confusing X_x my bad lols
            
Submit corrections


        Everybody Knows lessons Hard to play? Try these video lessons and learn fast Everybody Knows lessons
        
↑ Back to top | Tablatures and chords for acoustic guitar and electric guitar, ukulele, drums are parodies/interpretations of the original songs. You may use it for private study, scholarship, research or language learning purposes only