» » »

John Legend - All Of Me Tabs

Artists:  A B C D E F G H I J K L M N O P Q R S T U V W X Y Z # 

All Of Me Tabs

(ver. 2) Click to play this song!
John Legend
 Rating:
4.3/5 (13 votes)

 All Of Me lessons Tabs too difficult? Try these video lessons and learn fast
 
                E|--------------------------------------|
B|--------------------------------------|
G|--5--3--5-----5--3--5-----5--3--1--1--|
D|--------------------------------------|
A|--------------------------------------|
E|--------------------------------------|

E|--------------------------------------|
B|--------------------------------------|
G|--5--3--5-----5--5-----5--3--1--1-----|
D|-----------------------------------3--|
A|--------------------------------------|
E|--------------------------------------|

E|---------------------------------------------------------|
B|---------------------------------------------------------|
G|--5--5--5-----5h6--5-----------5h6--5--------3--5--3-----|
D|----------------------6-----6----------6--6-----------3--|
A|---------------------------------------------------------|
E|---------------------------------------------------------|

E|--------------------------------------|
B|--------------------------------------|
G|--5--3--5-----5--3--5-----5--3--1--1--|
D|--------------------------------------|
A|--------------------------------------|
E|--------------------------------------|

E|---------------------------------------|
B|------------4-----4--------------------|
G|--5--3--5------------6--5--3--1--1-----|
D|------------------------------------3--|
A|---------------------------------------|
E|---------------------------------------|

E|------------------------------------------------------------|
B|------------------------------------------------------------|
G|--5--5--5-----5h6--5-----------5h6--5--------3--5--3-----6--|
D|----------------------6-----6----------6--6-----------------|
A|------------------------------------------------------------|
E|------------------------------------------------------------|

E|-------------------------------------------|
B|-----4h6--4--2--1--------------------------|
G|--1-------------------3--1--0--------------|
D|----------------------------------3--1--3--|
A|-------------------------------------------|
E|-------------------------------------------|

E|---------------------------------|
B|--4h6--4--2--1--1-----1----------|
G|-------------------------3--1h3--|
D|---------------------------------|
A|---------------------------------|
E|---------------------------------|

E|-----------------------------------|
B|-----4--------6--------------------|
G|--5--------5--------5-----3--1--5--|
D|-----------------------------------|
A|-----------------------------------|
E|-----------------------------------|

E|--------------------------|
B|--------------------------|
G|--5--5--3--3--3--1--3--3--|
D|--------------------------|            x2
A|--------------------------|
E|--------------------------|

E|--------------------------------------------|
B|--------4--------6--------6-----------------|
G|--5--5--------5--------5-----5-----3--1--5--|
D|--------------------------------------------|
A|--------------------------------------------|
E|--------------------------------------------|

E|--------------------------|
B|--------------------------|
G|--5--5--3--3--3--1--3--3--|
D|--------------------------|            x2
A|--------------------------|
E|--------------------------|

E|-----------------4-----3-----------------------|
B|-----------4-----------------6-----4-----------|
G|--5--5--6--------------------------------5--5--|
D|-----------------------------------------------|
A|-----------------------------------------------|
E|-----------------------------------------------|

E|-----------------4-----3--------------------------------|
B|-----------4-----------------6-----4--------------------|
G|--5--5--6--------------------------------5--5-----5--3--|
D|--------------------------------------------------------|
A|--------------------------------------------------------|
E|--------------------------------------------------------|

E|-----------------------------------------|
B|-----------------------------------------|
G|--5--3--5-----5--3--5-----5--5--3--1--1--|
D|-----------------------------------------|
A|-----------------------------------------|
E|-----------------------------------------|

E|--------------------------------------|
B|-----------4-----4--------------------|
G|--5--3--5-----------6--5--3--1--1-----|
D|-----------------------------------3--|
A|--------------------------------------|
E|--------------------------------------|

E|---------------------------------------------------------|
B|---------------------------------------------------------|
G|--5--5--5-----5h6--5-----------5h6--5--------3--5--3-----|
D|----------------------6-----6----------6--6-----------3--|
A|---------------------------------------------------------|
E|---------------------------------------------------------|

E|-------------------------------------|
B|--4--1-------------------4--1--1--1--|
G|--------3h4--3--1-----1--------------|
D|-------------------------------------|
A|-------------------------------------|
E|-------------------------------------|

E|-----------------------------------|
B|-----4--1--1-----------1-----1-----|
G|--1-----------3-----1-----3--------|
D|--------------------------------3--|
A|-----------------------------------|
E|-----------------------------------|

E|------------------------------------------------------------|
B|------------------------------------------------------------|
G|--5--5--5-----5h6--5-----------5h6--5--------3--5--3-----6--|
D|----------------------6-----6----------6--6-----------------|
A|------------------------------------------------------------|
E|------------------------------------------------------------|

E|-----------------------------------------------------|
B|------16h18--16--14--13------------------------------|
G|--13-----------------------15--13--12----------------|
D|-----------------------------------------15--13--15--|
A|-----------------------------------------------------|
E|-----------------------------------------------------|

E|--------------------------------------------|
B|--16h18--16--14--13--13-----13--------------|
G|--------------------------------15--13--15--|
D|--------------------------------------------|
A|--------------------------------------------|
E|--------------------------------------------|

E|--------------------------------------------|
B|------16---------18-------------------------|
G|--17---------17---------17----15----13--17--|
D|--------------------------------------------|
A|--------------------------------------------|
E|--------------------------------------------|

E|---------------------------------------------------------------------------|
B|---------------------------------------------------------------------------|
G|--17--17-----15--15--15--13--15--15-----17--17-----15--15--15--13--15--15--|
D|---------------------------------------------------------------------------|
A|---------------------------------------------------------------------------|
A|---------------------------------------------------------------------------|

E|-------------------------------------------------------|
B|----------16---------18---------18---------------------|
G|--17--17---------17---------17------17--15-----13--17--|
D|-------------------------------------------------------|
A|-------------------------------------------------------|
E|-------------------------------------------------------|

E|---------------------------------------------------------------------------|
B|---------------------------------------------------------------------------|
G|--17--17-----15--15--15--13--15--15-----17--17-----15--15--15--13--15--15--|
D|---------------------------------------------------------------------------|
A|---------------------------------------------------------------------------|
A|---------------------------------------------------------------------------|

E|------------------16--15------------------|
B|--------------16----------18--16----------|
G|--17--17--18----------------------17--17--|
D|------------------------------------------|
A|------------------------------------------|
E|------------------------------------------|

E|------------------16--15---------------------------|
B|--------------16----------18--16-------------------|
G|--17--17--18----------------------17--17----17--15-|
D|---------------------------------------------------|
A|---------------------------------------------------|
E|---------------------------------------------------|

E|----------16--15-----------------------4--3-----------------|
B|--13--13----------16h18-----4h6--4--2--------6--4-----------|
G|---------------------------------------------------6--5--3--|
D|------------------------------------------------------------|
A|------------------------------------------------------------|
E|------------------------------------------------------------|

E|-------------4--3--------|
B|--4h6--4--2--------6--4--|
G|-------------------------|
D|-------------------------|
A|-------------------------|
E|-------------------------|

E|-----------------------------------|
B|-----4--------6--------------------|
G|--5--------5--------5-----3--1--5--|
D|-----------------------------------|
A|-----------------------------------|
E|-----------------------------------|

E|--------------------------|
B|--------------------------|
G|--5--5--3--3--3--1--3--3--|
D|--------------------------|            x2
A|--------------------------|
E|--------------------------|

E|-----------------------4--3--------------|
B|-----4--------6-----6--------6-----4-----|
G|--5--------5--------------------------5--|
D|-----------------------------------------|
A|-----------------------------------------|
E|-----------------------------------------|

E|--------------------------|
B|--------------------------|
G|--5--5--3--3--3--1--3--3--|
D|--------------------------|            x2
A|--------------------------|
E|--------------------------|

E|-----------------4-----3-----------------------|
B|-----------4-----------------6-----4-----------|
G|--5--5--6--------------------------------5--5--|             x2
D|-----------------------------------------------|
A|-----------------------------------------------|
E|-----------------------------------------------|

E|---------------------16--15---------------------|
B|--13--13--14--16-------------18--16-------------|
G|----------------------------------------17--17--|
D|------------------------------------------------|
A|------------------------------------------------|
E|------------------------------------------------|

E|------------------16--15---------------------------|
B|--------------16----------18--16-------------------|
G|--17--17--18----------------------17--17----17--15-|
D|---------------------------------------------------|
A|---------------------------------------------------|
E|---------------------------------------------------|            
Submit corrections


        All Of Me lessons Hard to play? Try these video lessons and learn fast All Of Me lessons
        
↑ Back to top | Tablatures and chords for acoustic guitar and electric guitar, ukulele, drums are parodies/interpretations of the original songs. You may use it for private study, scholarship, research or language learning purposes only