Home » J » Jo Dee Messina »

Jo Dee Messina - Bring On The Rain Tabs

Artists:  A B C D E F G H I J K L M N O P Q R S T U V W X Y Z # 

Bring On The Rain Tabs

(ver. 3) Click to play this song!
Jo Dee Messina

CHORDS:

C  (added bottom) = x32013
F                 = 133211 or XX3211
C                 = x32010
Dm                = xx0231

INTRO:
   F           C(add bottom) Dm          C(add bottom)
E------1-----1-----3-----3-------1-----1-----3-----3--
D---1-----1-----1-----1-------3-----3-----1-----1----
G-----------------------------------------------------
D-3-----3-----2-----2-------0-----0-----2-----2------
A---------------------------------------------------
E---------------------------------------------------

   F           C           Dm          Dm
E------1-----1-----0-----0-----1-----1-----1-----1--
D---1-----1-----1-----1-----3-----3-----3-----3----
G---------------------------------------------------
D-3-----3-----2-----2-----0-----0-----0-----0------
A---------------------------------------------------
E---------------------------------------------------

VERSES/CHORUS

   F           C           Dm          Dm
E------1-----1-----0-----0-----1-----1-----1-----1--
D---1-----1-----1-----1-----3-----3-----3-----3----
G---------------------------------------------------
D-3-----3-----2-----2-----0-----0-----0-----0------
A---------------------------------------------------
E---------------------------------------------------

OR 

   F           C(add bottom) Dm          Dm
E------1-----1-----3-----3-------1-----1-----1-----1--
D---1-----1-----1-----1-------3-----3-----3-----3----
G-----------------------------------------------------
D-3-----3-----2-----2-------0-----0-----0-----0------
A-----------------------------------------------------
E-----------------------------------------------------

Wherever these chords are picked, the same basic pattern is followed. See posted 
chords, and listen to the song. Very easy, but nice song. The rest can be strummed.

 
            
Submit corrections

↑ Back to top | Tablatures and chords for acoustic guitar and electric guitar, ukulele, drums are parodies/interpretations of the original songs. You may use it for private study, scholarship, research or language learning purposes only