Home » J » Jo Dee Messina »

Jo Dee Messina - Bring On The Rain Tabs

Artists:  A B C D E F G H I J K L M N O P Q R S T U V W X Y Z # 

Bring On The Rain Tabs

(ver. 2) Click to play this song!
Jo Dee Messina
On 1-11-03

 F         C          Dm          Dsus4
---1----1------3----------------1-----3------
--1----1-----1---1--------3-------------3----
-------------------0----2-----2-----2-----2--
-3---3-----2----------0-----0-----0---------0
-----------------------------------------------
-----------------------------------------------

 F         C          Dm               NC    
---1----1------3------------1------ 1----------
--1----1-----1---1--------3-----3--------------
-------------------0----2-----2----------------
-3---3-----2----------0-----------0------0-----
---------------------------------------3-------
-----------------------------------------------
                                          Another Day...

Tabs throughout are currently in progress.
Intro complete. 
            
Submit corrections

↑ Back to top | Tablatures and chords for acoustic guitar and electric guitar, ukulele, drums are parodies/interpretations of the original songs. You may use it for private study, scholarship, research or language learning purposes only