Home » J » Jo Dee Messina »

Jo Dee Messina - My Give A Damns Busted Tabs

Artists:  A B C D E F G H I J K L M N O P Q R S T U V W X Y Z # 

My Give A Damns Busted Tabs

(ver. 1) Click to play this song!
Jo Dee Messina
                My Give A Damn's Busted
By Jo Dee Messina
03/13/2005
Intro

This is my first attempt at a tab so 
please let me know if I got it wrong.

Also if anyone can figure out the little
 riff right before she sings I'd appreciate it.



--------2/4-----------------------
--------3/5------------------5----
--------2/4---7---4---7-----------
----------------------------------
----------------------------------
----------------------------------
Play 3 times.

On the last one play it like this

--------2/4--------------------
--------3/5--------------------
--------2/4----7---4---7---4---
-------------------------------
-------------------------------
-------------------------------

Then the following Chords  ---- D A E
            
Submit corrections

↑ Back to top | Tablatures and chords for acoustic guitar and electric guitar, ukulele, drums are parodies/interpretations of the original songs. You may use it for private study, scholarship, research or language learning purposes only