Home » J » Jo Dee Messina »

Jo Dee Messina - Heads Carolina, Tails California Tabs

Artists:  A B C D E F G H I J K L M N O P Q R S T U V W X Y Z # 

Heads Carolina, Tails California Tabs

(ver. 1) Click to play this song!
Jo Dee Messina
E---------------------------------------
B---------------------------------------
G-8^9-9-9-8-8-6-6-----9-9-8-8-6-6-------
D-----------------9-9-------------9-9---
A---------------------------------------
E---------------------------------------

E---------------------------------------
B---------------------------------------
G----------------------4---4------------
D-9^10-9-9-7-7-6-6-4-4-4-4-4------------
A---------------------------------------
E---------------------------------------


E---------------------------------------
B-9-9-9-9-7-7-5-5-5-5-------------------
G-9-9-9-9-9-9-4-4-4-4-------------------
D---------------------------------------
A---------------------------------------
E---------------------------------------


E--------------------------------------------------------|
B-9-9-7-7-5-5-4-4---4^5-4-2-2-0-0-0----5-4---9-7----/12--|
G-9-9-9-9-4-4-4-4---4-4-4-2-2-0-0-0----4-4---9-9---------|
D--------------------------------------------------------|
A--------------------------------------------------------|
E--------------------------------------------------------|
            
Submit corrections

↑ Back to top | Tablatures and chords for acoustic guitar and electric guitar, ukulele, drums are parodies/interpretations of the original songs. You may use it for private study, scholarship, research or language learning purposes only