» » »

Jesus Culture - Miracles Tabs

Artists:  A B C D E F G H I J K L M N O P Q R S T U V W X Y Z # 

Miracles Tabs

(ver. 1) Click to play this song!
Jesus Culture
 Rating:
4.3/5 (18 votes)

 Miracles  lessons Tabs too difficult? Try these video lessons and learn fast
 
                CHORUS:
 
E|-------------------------------------------------------------------
B|-------------------------------------------------------------------
G|-7---7---12---11---7---7---12---11---7---7---12---11---6---6---9---
D|---0---0----0----0---0---0----0----0---0---0----0----0---0---0---0-
A|-------------------------------------------------------------------
E|-------------------------------------------------------------------
 
E|----------------------------------------------------------------|
B|----------------------------------------------------------------|
G|-11---7---7---12---11---7---7---16---14---7---7---12---11---6---|
D|----0---0---0----0----0---0---0----0----0---0---0----0----0-----|
A|--------------------------------------------------------------7-|
E|----------------------------------------------------------------|

Verse 2 Riff:
 
E|---10-9----|
B|-7------10-|
G|-----------|
D|-----------|
A|-----------|
E|-----------|
 
BRIDGE: Fast 32nd notes

E|-----------------------------------|
B|-12--14--15--7--10--12--14--15--19-|
G|-----------------------------------|
D|-----------------------------------|
A|-----------------------------------|
E|-----------------------------------|

ENDING BRIDGE: 1st time
   G   A   D  Bm
E|-1-------------|
B|-1---2---7---3-|
G|-0---2---7---2-|
D|-0---2---7---0-|
A|-2---0-------2-|
E|-3-------------|
 
2nd time:
   G    A      D   Bm
E|-7----9-10----------|
B|-8---10------7---10-|
G|-7----9------7----7-|
D|-------------7----7-|
A|--------------------|
E|--------------------|

ENDING CHORUS:
 
E|--10---10---10----9-|
B|---7----8----7---10-|
G|---7----7----7----9-|
D|--------------------|
A|--------------------|
E|--------------------|
             
Submit corrections


        Miracles  lessons Hard to play? Try these video lessons and learn fast Miracles  lessons
        
↑ Back to top | Tablatures and chords for acoustic guitar and electric guitar, ukulele, drums are parodies/interpretations of the original songs. You may use it for private study, scholarship, research or language learning purposes only