» » »

Jesus Culture - Miracles Tabs

Artists:  A B C D E F G H I J K L M N O P Q R S T U V W X Y Z # 

Miracles Tabs

(ver. 2) Click to play this song!
Jesus Culture
 Rating:
4.4/5 (17 votes)

 Miracles  lessons Tabs too difficult? Try these video lessons and learn fast
 
                00:45
CHORUS
*******
e|-------------------s------------|-------------------s------------|
B|-3-------3------(3)\8------7----|-3-------3------(3)\8------7----|
G|--------------------------------|--------------------------------|
D|-----0------0----------0------0-|-----0------0----------0------0-|
A|--------------------------------|--------------------------------|
E|--------------------------------|--------------------------------|


e|-------------------s------------|------------------s-----------|
B|-3-------3------(3)\8------7----|-2------2------(2)\5-----7----|
G|--------------------------------|------------------------------|
D|-----0------0----------0------0-|----0------0----------0-----0-|
A|--------------------------------|------------------------------|
E|--------------------------------|------------------------------|

00:58
e|-------------------s------------|-------------------s--------------|
B|-3-------3------(3)\8------7----|-3-------3------(3)\12------10----|
G|--------------------------------|----------------------------------|
D|-----0------0----------0------0-|-----0------0-----------0-------0-|
A|--------------------------------|----------------------------------|
E|--------------------------------|----------------------------------|


e|-------------------s------------|--------------|
B|-3-------3------(3)\8------7----|-2------2-----|
G|--------------------------------|--------------|
D|-----0------0----------0------0-|----0------0--|
A|--------------------------------|--------------|
E|--------------------------------|--------------|


-------------------------
01:12
VERSE 2
********
e|------------------------|------------------------|
B|------------------------|------------------------|
G|-7--7--7--7--7--7--7--7-|------------------------|
D|-9--9--9--9--9--9--9--9-|-7--7--7--7--7--7--7--7-|
A|------------------------|-9--9--9--9--9--9--9--9-|
E|------------------------|------------------------|


e|--------------------------------|--------------------------------|
B|--------------------------------|--------------------------------|
G|--------------------------------|--------------------------------|
D|--9---9---9---9---9---9---9---9-|-11--11--11--11--11--11--11--11-|
A|-10--10--10--10--10--10--10--10-|-12--12--12--12--12--12--12--12-|
E|--------------------------------|--------------------------------|X3


-------------------------
01:52 - 02:18
CHORUS
*******
e|-------------------s------------|-------------------s------------|
B|-3-------3------(3)\8------7----|-3-------3------(3)\8------7----|
G|--------------------------------|--------------------------------|
D|-----0------0----------0------0-|-----0------0----------0------0-|
A|--------------------------------|--------------------------------|
E|--------------------------------|--------------------------------|


e|-------------------s------------|------------------s-----------|
B|-3-------3------(3)\8------7----|-2------2------(2)\5-----7----|
G|--------------------------------|------------------------------|
D|-----0------0----------0------0-|----0------0----------0-----0-|
A|--------------------------------|------------------------------|
E|--------------------------------|------------------------------|


e|-------------------s------------|-------------------s--------------|
B|-3-------3------(3)\8------7----|-3-------3------(3)\12------10----|
G|--------------------------------|----------------------------------|
D|-----0------0----------0------0-|-----0------0-----------0-------0-|
A|--------------------------------|----------------------------------|
E|--------------------------------|----------------------------------|


e|-------------------s------------|--------------|--------------|
B|-3-------3------(3)\8------7----|-2------2-----|-2------2-----|
G|--------------------------------|--------------|--------------|
D|-----0------0----------0------0-|----0------0--|----0------0--|
A|--------------------------------|--------------|--------------|
E|--------------------------------|--------------|--------------|X2


-------------------------
02:45
BRIDGE
*******
e|-----------------------|-----------------------|-----------------------|-----------------10-7----|
B|-----10-7-------10-7---|-----10-7-------10-7---|-----10-7-------10-7---|-----10-7------7------10-|
G|---7------9-7--------9-|---7------9-7--------9-|---7------9-7--------9-|---7------9-7------------|
D|-0---------------------|-0---------------------|-0---------------------|-0-----------------------|
A|-----------------------|-----------------------|-----------------------|-------------------------|
E|-----------------------|-----------------------|-----------------------|-------------------------|X4


-------------------------
04:05               
CHORUS
*******
e|-------------------s------------|-------------------s------------|
B|-3-------3------(3)\8------7----|-3-------3------(3)\8------7----|
G|--------------------------------|--------------------------------|
D|-----0------0----------0------0-|-----0------0----------0------0-|
A|--------------------------------|--------------------------------|
E|--------------------------------|--------------------------------|


e|-------------------s------------|------------------s-----------|
B|-3-------3------(3)\8------7----|-2------2------(2)\5-----7----|
G|--------------------------------|------------------------------|
D|-----0------0----------0------0-|----0------0----------0-----0-|
A|--------------------------------|------------------------------|
E|--------------------------------|------------------------------|


e|-------------------s------------|-------------------s--------------|
B|-3-------3------(3)\8------7----|-3-------3------(3)\12------10----|
G|--------------------------------|----------------------------------|
D|-----0------0----------0------0-|-----0------0-----------0-------0-|
A|--------------------------------|----------------------------------|
E|--------------------------------|----------------------------------|


e|-------------------s------------|--------------|--------------|
B|-3-------3------(3)\8------7----|-2------2-----|-2------2-----|
G|--------------------------------|--------------|--------------|
D|-----0------0----------0------0-|----0------0--|----0------0--|
A|--------------------------------|--------------|--------------|
E|--------------------------------|--------------|--------------|X2            
Submit corrections


        Miracles  lessons Hard to play? Try these video lessons and learn fast Miracles  lessons
        
↑ Back to top | Tablatures and chords for acoustic guitar and electric guitar, ukulele, drums are parodies/interpretations of the original songs. You may use it for private study, scholarship, research or language learning purposes only