» » »

Jesus Culture - In The River Tabs

Artists:  A B C D E F G H I J K L M N O P Q R S T U V W X Y Z # 

In The River Tabs

(ver. 1) Click to play this song!
Jesus Culture
 Rating:
2.3/5 (22 votes)

 In The River  lessons Tabs too difficult? Try these video lessons and learn fast
 
                Main riff:

e|13-10-13-10----------------------------------------------------------------|
B|------------13-10-13-10----------10---------10-----------------------------|
G|------------------------12-10-12----10-12----------------------------------|
D|---------------------------------------------------------------------------|
A|---------------------------------------------------------------------------|
E|---------------------------------------------------------------------------|

e|13-10-13-10----------------------------------------------------------------|
B|------------13-10-13-10----------10----13--10------------------------------|
G|------------------------12-10-12----10-------------------------------------|
D|---------------------------------------------------------------------------|
A|---------------------------------------------------------------------------|
E|---------------------------------------------------------------------------|
            
Submit corrections


        In The River  lessons Hard to play? Try these video lessons and learn fast In The River  lessons
        
↑ Back to top | Tablatures and chords for acoustic guitar and electric guitar, ukulele, drums are parodies/interpretations of the original songs. You may use it for private study, scholarship, research or language learning purposes only