» » »

Jesus Culture - Rooftops Tabs

Artists:  A B C D E F G H I J K L M N O P Q R S T U V W X Y Z # 

Rooftops Tabs

(ver. 1) Click to play this song!
Jesus Culture
 Rating:
4.3/5 (6 votes)

 Rooftops lessons Tabs too difficult? Try these video lessons and learn fast
 
                Tuning: Standard

| h  hammer-on
| ~  let ring

All guitars tuned EADGBe
 {Gtr 1 - distorted electric
 {Gtr 2 - distorted electric

The intro is crazy fun to play if you let all the notes ring out just right. Try it. ;)

[Intro]
   {Gtr 1
e|----------------------------------12~----|
B|------9~-------9~--------9~--9h10-----9--|
G|----------9-11----9----------------------|
D|--11~------------------------------------|
A|---------------------12------------------|
E|-----------------------------------------|

   {Gtr 1
e|-----------------------------------12~--------|
B|------9~-------9~--------9~---9h10-----9------|
G|----------9-11----9---------------------------|
D|--11~------------------------------------11~--|
A|---------------------12-----------------------|
E|----------------------------------------------|


[Verse]
    Here I am before you,
   {Gtr 2
    Falling in love and seeking your truth
e|--------------------------------------------|
B|--------------------------------------------|
G|--4~----------------------------------------|
D|--4~----------------------------------------|
A|--2~----------------------------------------|
E|--------------------------------------------|

   {Gtr 2
    Knowing that your perfect grace
e|--------------------------------------------|
B|--------------------------------------------|
G|--2~----------------------------------------|
D|--2~----------------------------------------|
A|--0~----------------------------------------|
E|--------------------------------------------|
 | {Gtr 1                                     |
e|--------------------------------------------|
B|--9~----------------------------------------|
G|--6~----------------------------------------|
D|--7~----------------------------------------|
A|--------------------------------------------|
E|--------------------------------------------|

   {Gtr 2
Has brought me to this place
e|--------------------------------------------|
B|--------------------------------------------|
G|--4~----------------------------------------|
D|--4~----------------------------------------|
A|--2~----------------------------------------|
E|--------------------------------------------|

   {Gtr 2 - Do a slow upstroke for this, not picking. In the second verse, just do a C# 
power chord [-466--].
  Because of you I freely live
e|-4------------------------------------------|
B|--5-----------------------------------------|
G|---6~---------------------------------------|
D|--------------------------------------------|
A|--------------------------------------------|
E|--------------------------------------------|
 | {Gtr 1                                     |
e|--------------------------------------------|
B|------9~------------------------------------|
G|--------------------------------------------|
D|--11~---------------------------------------|
A|--------------------------------------------|
E|--------------------------------------------|

   {Gtr 2
 My life to you, oh God, I give
e|--------------------------------------------|
B|--------------------------------------------|
G|--4~----------------------------------------|
D|--4~----------------------------------------|
A|--2~----------------------------------------|
E|--------------------------------------------|
 | {Gtr 1                                     |
e|--------------------------------------------|
B|-----7~-------------------------------------|
G|--------------------------------------------|
D|--9~----------------------------------------|
A|--------------------------------------------|
E|--------------------------------------------|

Gtr 2 does all the main chords in the song except in the verses. Gtr 1 does really quiet 
stuff that kinda just adds to the song as a whole.

[Pre-Chorus]
     F#m              C#m
So I stand before You God
  E                         B
I lift my voice because you set me free


[Chorus]
     E                            B
So I shout out your name from the rooftops I proclaim
	  C#m         A      F#m
That I am Yours, I am Yours


[Verse 2] This follows the same pattern as the first verse.


[Chorus 2]
     E                            B
So I shout out your name from the rooftops I proclaim
	  C#m         A
That I am Yours, I am Yours
E                       B
All that I am I place into Your loving hands
         C#m         A      F#m
And I am Yours, I am Yours


[Bridge] Gtr 2 does the chords, Gtr 1 covers the octaves.
       E
Here I am, I stand with arms wide open
e|----------------------------------|
B|--9-9-9-9-9-9-9-10--9\7-7--5-5-5--|
G|--x-x-x-x-x-x-x-x---x---x--x-x-x--|
D|--6-6-6-6-6-6-6-7---6\4-4--2-2-2--|
A|----------------------------------|
E|----------------------------------|

       C#m
To the one, the Son, the everlasting
e|----------------------------------|
B|--9-9-9-9-9-9-9-10--9\7-7--5-5-5--|
G|--x-x-x-x-x-x-x-x---x---x--x-x-x--|
D|--6-6-6-6-6-6-6-7---6\4-4--2-2-2--|
A|----------------------------------|
E|----------------------------------|

A
God, the everlasting
e|----------------------------------|
B|--5-5-5-5-5-5-5-10--9\7-7--5-5-5--|
G|--4-4-4-4-4-4-4-x---x---x--x-x-x--|
D|--2-2-2-2-2-2-2-7---6\4-4--2-2-2--|
A|----------------------------------|
E|----------------------------------|

F#m
God
e|-----------------------------------|
B|--7-7-7-7-7-7-7-7-7-7-7-7-7-7-7-7--|
G|--x-x-x-x-x-x-x-x-x-x-x-x-x-x-x-x--|
D|--4-4-4-4-4-4-4-4-4-4-4-4-4-4-4-4--|
A|-----------------------------------|
E|-----------------------------------|

Repeat that one more time, then end it on [-2245-]. Go back to the chorus and then end 
it or do whatever else you want with the song haha.

That covers it. God bless!
            
Submit corrections


        Rooftops lessons Hard to play? Try these video lessons and learn fast Rooftops lessons
        
↑ Back to top | Tablatures and chords for acoustic guitar and electric guitar, ukulele, drums are parodies/interpretations of the original songs. You may use it for private study, scholarship, research or language learning purposes only