» » »

James Bay - Let It Go Acoustic Tabs

Artists:  A B C D E F G H I J K L M N O P Q R S T U V W X Y Z # 

Let It Go Acoustic Tabs

(ver. 2) Click to play this song!
James Bay
 Rating:
4.3/5 (21 vote)

 Let It Go Acoustic lessons Tabs too difficult? Try these video lessons and learn fast
 
                [Intro]

e|-------8---8---------------7----8----8------------3-------------------------|
B|---------8----10---------------------5---5---5----3---3---6---5-------------|
G|--9h10--------10----10-------10---10-5-----5---5--4-4---4---4---4-----------|
D|--------------10-10----10--------------7------------------------------------|
A|--------------8----------------------0--------------------------------------|
E|--8-----------------------------------------------3-------------------------|

e|-------8---8---------------7----8----8------------3-------------------------|
B|---------8----10---------------------5---5---5----3---3---6---5-------------|
G|--9h10--------10----10-------10---10-5-----5---5--4-4---4---4---4-----------|
D|--------------10-10----10--------------7------------------------------------|
A|--------------8----------------------0--------------------------------------|
E|--8-----------------------------------------------3-------------------------|


[Verse]

e|-------------------------------------------3---------------------------------|
B|------3/5-5------3/5-5-----5---3/5-5-------3---3---6---5-------3/5-5---------|
G|----0-------5-0--3/5-5---5---0-3/5-5---5---4-4---4---4---4---0-------5-0-----|
D|-----------------3-----3-------3/5-5-5---5-----------------------------------|
A|--3----------------------------0---------------------------3-----------------|
E|-------------------------------------------3---------------------------------|

e|------3----------------------3-----------------------------------------------|
B|--3/5------5-1/5\3----3/5-5--3---3---6---5-----------------------------------|
G|--3/5----5------------3/5-5--4-4---4---4---4---------------------------------|
D|--3-------------------3/5-5--------------------------------------------------|
A|--------------------0--------------------------------------------------------|
E|-----------------------------3-----------------------------------------------|

e|-------------------------------------------3---------------------------------|
B|------3/5-5------3/5-5-----5---3/5-5-------3---3---6---5-------3/5-5---------|
G|----0-------5-0--3/5-5---5---0-3/5-5---5---4-4---4---4---4---0-------5-0-----|
D|-----------------3-----3-------3/5-5-5---5-----------------------------------|
A|--3----------------------------0---------------------------3-----------------|
E|-------------------------------------------3---------------------------------|

e|------3----------------------3------------------0-0---0--------0-0---0-------|
B|--3/5------5-1/5\3----3/5-5--3---3---6---5----3-----3--------3-----3---3h1-1-|
G|--3/5----5------------3/5-5--4-4---4---4---4--2-----------2--0---------------|
D|--3-------------------3/5-5-------------------2------------------------------|
A|--------------------0-------------------------0-----0---0--------------------|
E|-----------------------------3-------------------------------3-----3---------|


e|--0---0---0------0---0---0-------0-0---------0-0---0-------0---0---0---------|
B|----1---1---1------1---1---1---3-----3-----3-----3---3h1-1---1---1---1-------|
G|-----------------------------0-2---------2-0---------------------------------|
D|-------------------------------2---------------------------------------------|
A|-------------------------------0-----0-0-------------------------------------|
E|--2------------1---------------------------3-----3-------2-------------------|

e|--0---0---0h3-3-0------------------------------------------------------------|
B|----1---1--------------------------------------------------------------------|
G|-----------------------------------------------------------------------------|
D|-----------------------------------------------------------------------------|
A|-----------------------------------------------------------------------------|
E|--1--------------------------------------------------------------------------|

[Chorus]

e|--0---0------0h3-3---0---0---0-----0h3-3---0----0-----0----------------------|
B|--1-3---3--1-------------3-3---3-3-----0--------1---3---3--1-1-1---3---------|
G|--2--------0-------------2-------0--------------0h2--------0-----0-----------|
D|--3--------2-------2---2-2-------0-------0---0--3----------2-----------------|
A|-----------3-------------0-------0-------------------------3-----------------|
E|---------------------------------3-------------------------------------------|

e|-------------0h3-3---0---0-----0------------0h3-3---0---0---0----------------|
B|--3-3-3-3-3------0-------1---3---3--1---1-------0-------3-3---3-3---3--------|
G|--0-0-0-0-0------0-------0h2--------0-0---0-----0-------2-------0-0---0-----|
D|--0----------------0---0-3------------------------0---0-2--------------------
A|------x---x------x-----------x------3-----------x-------0-------------------|
E|--3---x---x------x-----------x------------------x---------------3-----------|
                                 o
e|--0h3-3-0------0---------------------0-0------------------------------------|
B|------0-1----3---3-1-1---3--3-3-3-3------1----------------------------------|
G|------0-0h2------------0----0-0-0-0-----------------------------------------|
D|--------3-------------------0-0-0-0-----------------------------------------|
A|------x------------x------------x--------x----------------------------------|
E|------x------------x--------3---x--------x----------------------------------|
 
e|-------8---8---------------7----8----8------------3-------------------------|
B|---------8----10---------------------5---5---5----3---3---6---5-------------|
G|--9h10--------10----10-------10---10-5-----5---5--4-4---4---4---4-----------|
D|--------------10-10----10--------------7------------------------------------|
A|--------------8----------------------0--------------------------------------|
E|--8-----------------------------------------------3-------------------------|

e|-------8---8---------------7----8----8------------3-------------------------|
B|---------8----10---------------------5---5---5----3---3---6---5-------------|
G|--9h10--------10----10-------10---10-5-----5---5--4-4---4---4---4-----------|
D|--------------10-10----10--------------7------------------------------------|
A|--------------8----------------------0--------------------------------------|
E|--8-----------------------------------------------3-------------------------|

[Verse]

e|----------------------------------------------3---3---3---------------------|
B|------3/5-5-----3/5-5-----5-----3/5---5---5---3-3---3---3-6---5-------------|
G|----0-------5-0---------5-----5-3/5-5---5---5-4-------------4---4-----------|
D|----------------3-----3-----3---3/5-----------------------------------------|
A|--3-------x-------------x-------0-----x---------------x---------------------|
E|----------x-------------x-------------x-------3-------x---------------------|


e|--------------------3-----------------------3-------------------------------|
B|------3/5-5-----3/5-----5-1/5\3---3/5---5---3---3---6-----------3/5-5-------|
G|----0-------5-0-------5-----------3/5-5---5-4-4---4---4---4-----------5---5-|
D|----------------3-----------------3/5---------------------------------------|
A|--3-------x---------------------0-------x-----x---------x-----3---------3---|
E|----------x-----------------------------x---3-x---------x-------------------|


e|----------------------------3---3---3---------------------------------------|
B|--3/5-5-------5---3/5---5---3-3---3-3-6-5----------------------------3/5-5--|
G|------------5---5-3/5-5---5-4-------------9p7-7-9p7-7-7h9------------3/5-5--|
D|--3-----3-x-------3/5-------------------------------------10-x-10-10-3/5-5--|
A|----------x-------0-----------------x-----------x-----8------x-------0------|
E|----------x-----------------3-------x-----8-----x------------x--------------|

[Pre-chorus]

e|--------3---3-------------0-0---0-------0-0---0-------0---0---0---0---0---0-|
B|----5---3-3---3-6---5---3-----3-------3-----3---3p1-1---1---1---1---1---1---|
G|--5---5-4---------4---4-2-----------2-0-------------------------------------|
D|------------------------2-------------0-------------------------------------|
A|------------------------0-----0---0---0-------------------------------------|
E|--------3-----------------------------3-----3---------2-----------1---------|


e|----0-0---0-------0-0---0-------0---0---0----0---0---0---0h3-3---0----------|
B|--3-----3-------3-----3---3p1-1---1---1---1----1---1---1-----0-----3--------|
G|--2-----------2-0--------------------------------------------0--------------|
D|--2-------------0----------------------------------------------0------------|
A|--0-----0---0---------------------------------------------------------------|
E|----------------3-----3---------2------------1------------------------------|

[Chorus]
                                                                   o
e|-0---0-----0h3-3---0---0-----0-----0h3-3-0-0-----0--------------------------|
B|-1-3---3-1-----0-------3---3---3-3-----0---1---3---3-1-1-1---3-3-3-3--------|
G|-2-------0-----0-------2---------0-----0---0h2-------0-----0---0---0--------|
D|-3-------2-------2---2-0h2-------0---------3---------2---------0---0--------|
A|---------3-------------0---------------x-------------3-------------x--------|
E|---------------------------------3-----x-----------------------3---x--------|

e|--0h3-3-0-----0-----------0h3 3---0--------0--------------0h3-3---0---------|
B|------0-1---3---3-1---1-------0-------3---3-3-3---3---3-------0-------------|
G|------0-0h2-------0-0---0-----0-------2-------0-0---0---0-----0-------------|
D|--------3-----------------------0---0-0h2-----0-----------------0---0-------|
A|------------------3-------------------0-------------------------------------|
E|----------------------------------------------3-----------------------------|
                                    o    
e|--0-----0-----------------------------0-0-----------------------------------|
B|--1---3---3-1---1---1---1-1---1-3-3-3-----1---------------------------------|
G|--0h2-------0-0---0---0-----0---0-0-0---------------------------------------|
D|--3-----------------------------0-0-0---------------------------------------|
A|------------3-----------x-x---x-----x-----x---------------------------------|
E|------------------------x-x---x-3---x-----x---------------------------------|

e|-------8---8---------------7----8----8------------3-------------------------|
B|---------8----10---------------------5---5---5----3---3---6---5-------------|
G|--9h10--------10----10-------10---10-5-----5---5--4-4---4---4---4-----------|
D|--------------10-10----10--------------7------------------------------------|
A|--------------8----------------------0--------------------------------------|
E|--8-----------------------------------------------3-------------------------|

e|-------8---8---------------7----8----8------------3-------------------------|
B|---------8----10---------------------5---5---5----3---3---6---5-------------|
G|--9h10--------10----10-------10---10-5-----5---5--4-4---4---4---4-----------|
D|--------------10-10----10--------------7------------------------------------|
A|--------------8----------------------0--------------------------------------|
E|--8-----------------------------------------------3-------------------------|

e|----------------------------------------------------------------------------|
B|----4/6-6-6-6-6-6h8---5---5---5-5-5-5-5-5h6-5-------------------------------|
G|----5/7-7-7-7-7-7---7-5---5---5-5-5-5-----------4-4-4-4-4-5-5---5---5h7/9---|
D|--0-------------------5-------------------------5-5-5-5---7-7---7-----------|
A|----------------------3-3---3-----------3-----------------------------------|
E|----------------------------------------------3-----3-----5---5---5---------|


e|----------------------------------------------------------------------------|
B|----4/6-6-6-6-6-6h8---5---5---5-5-5-5-5-5h6-5-------------------------------|
G|----5/7-7---7-5---5---5-5-5-5-----------4-4-4-4-5-5---5-------------|
D|--0-------------------5-------------------------5-5-5---7-7---7-------------|
A|----------------------3-3---3-----------3-------------------------5---------|
E|----------------------------------------------3-----3---5---5---5---5-5-----|


e|--0h3-3-0-0---0-------0h3-3---0----0---0-----0h3-3/5-0-1---1----------------|
B|----------1-3---3-1----------------3-3---3-3-----------3-3---3-1-3/5-5/6\5--|
G|----------2-------0-0--------------2-------0-----------2-------0------------|
D|----------3-------2---------0---0--2-------------------0-------2------------|
A|------------------3----------------0---------------------------3------------|
E|-------------------------------------------3--------------------------------|


e|------------0h3-3---0---0-----0-------------0h3-3---0---0-----0-------------|
B|--3-0---0-------0-------1---3---3-1---1---1-----0-------3---3---3-3---3---3-|
G|--0-0---0-------0-------0h2-------0-0---0-------0-------2---------0-0---0---|
D|------0---0-------0---0-3---------2---------------0---0-0h2-----------------|
A|----------------x-----------x-----3---------------------0-------------------|
E|--3-------------x-----------x-------------------------------------3---------|

                                               o 
e|--0h3-3---0----0-----0---------------3-3-3-------0h3-3-0-----0---------------|
B|------0--------1---3---3-1---1---1-------0-3-3-3-----0-1---3---3-1---1---1---|
G|------0--------0h2-------0-0---0---0-----0-0---0-----0-0h2-------0-0---0---0-|
D|--------0---0--3---------2-----------------0---0-------3---------2-----------|
A|------x------------------3-----------------2---x-----------------3-----------|
E|------x------------------------------------3---x-----------------------------|


e|--0h3-3-0-----0--------------0h3-3---0---0-----0-----------------------------|
B|------0-3---3---3-3---3---3------0-------1---3---3-1---1---1---1-1---3-------|
G|------0-2---------0-0---0--------0-------0h2-------0-0---0---0-----0---------|
D|--------0h2------------------------0---0-3---------2-------------------------|
A|--------0------------------------------------------3-------------------------|
E|------------------3----------------------------------------------------------|

      o 
e|----------0-0----------------------------------------------------------------|
B|--3-3-3-------3--------------------------------------------------------------|
G|--0-0-0----------------------------------------------------------------------|
D|--0-0-0---x-x----------------------------------------------------------------|
A|--2---x-2-x-x----------------------------------------------------------------|
E|--3---x---x-x----------------------------------------------------------------|

[Outro] 
e|-------8---8---------------7----8----8------------3-------------------------|
B|---------8----10---------------------5---5---5----3---3---6---5-------------|
G|--9h10--------10----10-------10---10-5-----5---5--4-4---4---4---4-----------|
D|--------------10-10----10--------------7------------------------------------|
A|--------------8----------------------0--------------------------------------|
E|--8-----------------------------------------------3-------------------------|

e|-------8---8---------------7----8----8------------3-------------------------|
B|---------8----10---------------------5---5---5----3---3---6---5-------------|
G|--9h10--------10----10-------10---10-5-----5---5--4-4---4---4---4-------9---|
D|--------------10-10----10--------------7-----------------------------10-----|
A|--------------8----------------------0-----------------------------10-------|
E|--8-----------------------------------------------3---------------8---------|            
Submit corrections


        Let It Go Acoustic lessons Hard to play? Try these video lessons and learn fast Let It Go Acoustic lessons
        
↑ Back to top | Tablatures and chords for acoustic guitar and electric guitar, ukulele, drums are parodies/interpretations of the original songs. You may use it for private study, scholarship, research or language learning purposes only