» » »

Iron Maiden - Purgatory Tabs

Artists:  A B C D E F G H I J K L M N O P Q R S T U V W X Y Z # 

Purgatory Tabs

(ver. 2) Click to play this song!
Iron Maiden
 Rating:
2.7/5 (23 votes)

 Purgatory lessons Tabs too difficult? Try these video lessons and learn fast
 
                Guitar #1:

Dave Murray

          Intro                                                     
     S    S     E  E  S E  E  E  E  E     S E  E  S E  E  E  E  E   
E||----|-------------------------------|---------------------------|
B||----|-------------------------------|---------------------------|
G||----|-------------------------------|---------------------------|
D||----|--2-----------4----4--5-----2--|--2-------4----4--5-----2--|
A||----|--0-----2--5--2-0--2-----5--0--|--0-2--5--2-0--2-----5--0--|
E||----|-------------------------3-----|---------------------3-----|


  S E  E  S E  E  E  E  E     S E  E  S E  E  E  E  E   
---------------------------|---------------------------|
---------------------------|---------------------------|
---------------------------|---------------------------|
--2-------4----4--5-----2--|--2-------4----4--5-----2--|
--0-2--5--2-0--2-----5--0--|--0-2--5--2-0--2-----5--0--|
---------------------3-----|---------------------3-----|


    Riff A                                                        
    S      E  E.  Q    E  S  S E       S  E  E.  Q    E  S  S E   
|-------------2--------------------||--------2-------------------|
|-----------------3----2--3p-2-----||------------3----2--3p-2----|
|*--2h-----4-------------------4--*||--2h-4-------------------4--|
|*--------------------------------*||----------------------------|
|----------------------------------||----------------------------|
|----------------------------------||----------------------------|


                               Verso Riff 1                         
  S  E  E.  Q    E  S  S E     S            E  E.  Q    E  S  S E   
--------2-------------------|------------------2-------------------|
------------3----2--3p-2----|----------------------3----2--3p-2----|
--2h-4-------------------4--|--2h-----------4-------------------4--|
----------------------------|--------------------------------------|
----------------------------|--------------------------------------|
----------------------------|--------------------------------------|


  S  E  E.  Q    E  S  S E     S  E  E.  Q    E  S  S E   
--------2-------------------|--------2-------------------|
------------3----2--3p-2----|------------3----2--3p-2----|
--2h-4-------------------4--|--2h-4-------------------4--|
----------------------------|----------------------------|
----------------------------|----------------------------|
----------------------------|----------------------------|


  S S S S S S S S E.  E.  E     S S S S S S S S E.  E.  E   
-----------------------------|-----------------------------|
-----------------------------|-----------------------------|
------------------6---4------|------------------6---4------|
------------------4---2---7--|------------------4---2---7--|
--0-2-2-2-2-2-2-2---------5--|--0-2-2-2-2-2-2-2---------5--|
-----------------------------|-----------------------------|


  S S S S S S S S E.  E.  E     S S S S S S S S E.  E.  E   
-----------------------------|-----------------------------|
-----------------------------|-----------------------------|
------------------6---4------|------------------6---4------|
------------------4---2---7--|------------------4---2---7--|
--0-2-2-2-2-2-2-2---------5--|--0-2-2-2-2-2-2-2---------5--|
-----------------------------|-----------------------------|


  S  E  E.  Q    E  S  S E     S  E  E.  Q    E  S  S E   
--------2-------------------|--------2-------------------|
------------3----2--3p-2----|------------3----2--3p-2----|
--2h-4-------------------4--|--2h-4-------------------4--|
----------------------------|----------------------------|
----------------------------|----------------------------|
----------------------------|----------------------------|


  S  E  E.  Q    E  S  S E     S  E  E.  Q    E  S  S E   
--------2-------------------|--------2-------------------|
------------3----2--3p-2----|------------3----2--3p-2----|
--2h-4-------------------4--|--2h-4-------------------4--|
----------------------------|----------------------------|
----------------------------|----------------------------|
----------------------------|----------------------------|


  S  E  E.  Q    E  S  S E     S  E  E.  Q    E  S  S E   
--------2-------------------|--------2-------------------|
------------3----2--3p-2----|------------3----2--3p-2----|
--2h-4-------------------4--|--2h-4-------------------4--|
----------------------------|----------------------------|
----------------------------|----------------------------|
----------------------------|----------------------------|


  S  E  E.  Q    E  S  S E     S S S S S S S S E.  E.  E   
--------2-------------------|-----------------------------|
------------3----2--3p-2----|-----------------------------|
--2h-4-------------------4--|------------------6---4------|
----------------------------|------------------4---2---7--|
----------------------------|--0-2-2-2-2-2-2-2---------5--|
----------------------------|-----------------------------|


  S S S S S S S S E.  E.  E     S S S S S S S S E.  E.  E   
-----------------------------|-----------------------------|
-----------------------------|-----------------------------|
------------------6---4------|------------------6---4------|
------------------4---2---7--|------------------4---2---7--|
--0-2-2-2-2-2-2-2---------5--|--0-2-2-2-2-2-2-2---------5--|
-----------------------------|-----------------------------|


                                Verso Riff 2                           
  S S S S S S S S E.  E.  E     W                   H        H         
-----------------------------|-------------------|--------------------|
-----------------------------|-------------------|--------------------|
------------------6---4------|--7----------------|--3--------5--------|
------------------4---2---7--|--7----------------|--3--------5--------|
--0-2-2-2-2-2-2-2---------5--|--5----------------|--1--------3--------|
-----------------------------|-------------------|--------------------|


  W                   H        H           W                 
-------------------|--------------------|-------------------|
-------------------|--------------------|-------------------|
--7----------------|--3--------5--------|--7----------------|
--7----------------|--3--------5--------|--7----------------|
--5----------------|--1--------3--------|--5----------------|
-------------------|--------------------|-------------------|


  H        H           W                   H        H         
--------------------|-------------------|--------------------|
--------------------|-------------------|--------------------|
--3--------5--------|--7----------------|--3--------5--------|
--3--------5--------|--7----------------|--3--------5--------|
--1--------3--------|--5----------------|--1--------3--------|
--------------------|-------------------|--------------------|


   Solo Dave Murray                                                   
   E.               E.    Q       Q.         Q     E   E    H         
-----------------------------------------|---------------------------|
--17b--------------17b---17br-----L------|---L----15-----------------|
-----------------------------------------|------------16~---L--------|
-----------------------------------------|---------------------------|
-----------------------------------------|---------------------------|
-----------------------------------------|---------------------------|


                    |---3---|                                                   
   Q.      S  S  S  S   S   S  S  Q         E   S  E.    S   S  Q.       S   S  
----------------------------------------|--------------------------------------|
-------------15-17-15p-14h-15-14--------|--------------------------------------|
---L------16---------------------16~----|---L------------------14~------14h-16-|
----------------------------------------|------14-16~---14h-16-----------------|
----------------------------------------|--------------------------------------|
----------------------------------------|--------------------------------------|


            |---3---|                                                 
   Q.       S   S   S  Q.       S   S     S  S  Q.      Q      Q      
----------------------14~-------------|--14-17b-L------17b----17b----|
--14~------14h-15h-17----------15h-17-|------------------------------|
--------------------------------------|------------------------------|
--------------------------------------|------------------------------|
--------------------------------------|------------------------------|
--------------------------------------|------------------------------|


  W                 
--L----------------|
-------------------|
-------------------|
-------------------|
-------------------|
-------------------|


   |---3---|   |---3---|   |---3---|   |---3---|   |---3---|   |---3---|   |---3
   S   S   S   S   S   S   S   S   S   S   S   S   S   S   S   S   S   S   S   S
--14h-17p-14h-17p-14h-17p-14h-17p-14h-17p-14h-17p-14h-17p-14h-17p-14h-17p-14h-17
--------------------------------------------------------------------------------
--------------------------------------------------------------------------------
--------------------------------------------------------------------------------
--------------------------------------------------------------------------------
--------------------------------------------------------------------------------


   |---3---|   |---3---|   |---3---|   |---3---|   |---3---|   |---3---|   |---3
   S   S   S   S   S   S   S   S   S   S   S   S   S   S   S   S   S   S   S   S
--14h-17p-14h-17p-14h-17p-14h-17p-14h-17p-14h-17p-14h-17p-14h-17p-14h-17p-14h-17
--------------------------------------------------------------------------------
--------------------------------------------------------------------------------
--------------------------------------------------------------------------------
--------------------------------------------------------------------------------
--------------------------------------------------------------------------------


                          |---3---|  |---3--|                        
   E.    E.    Q      E   S   S   S  S   S  S     W                  
----------------------------------------------|---------------------|
--17b---17b---17b----15--17p-15p-14-15p-14----|--14~----------------|
-------------------------------------------16-|---------------------|
----------------------------------------------|---------------------|
----------------------------------------------|---------------------|
----------------------------------------------|---------------------|


                                      Puente                  
   W                     E.   E   S   E      E.   E   S   E   
---------------------|---------------------------------------|
--13~----------------|--10---10-------------10---10----------|
---------------------|-----------12p-10--------------12p-10--|
---------------------|---------------------------------------|
---------------------|---------------------------------------|
---------------------|---------------------------------------|


   E.   E  S   E   E.   E  S   E     E.  E   S   E  E.  E   S   E   
----------------------------------|--------------------------------|
----------------------------------|--------------------------------|
-----------9h-10-----------9h-10--|--9---9--10h-12--9---9--10h-12--|
--12---12---------12---12---------|--------------------------------|
----------------------------------|--------------------------------|
----------------------------------|--------------------------------|


   E.  S   S  S  S  S   S  S  S  S   S   S  S  S  
-------8h-10p-8----------------------------------|
--10------------10p-8h-10p-8---------------------|
-----------------------------10p-9h-12p-10p-9----|
----------------------------------------------12-|
-------------------------------------------------|
-------------------------------------------------|


   Coro A                                                                 
   E.     E   S   E   E.   E   S   E      E.   E  S   E   E.   E  S   E   
--------------------------------------|----------------------------------|
--10-----10----------10---10----------|----------------------------------|
-------------12p-10-----------12p-10--|-----------9h-10-----------9h-10--|
--------------------------------------|--12---12---------12---12---------|
--------------------------------------|----------------------------------|
--------------------------------------|----------------------------------|


                                    tr       tr        tr        tr        
  E.  E   S   E  E.  E   S   E      Q        Q         Q         Q         
--------------------------------|-----------------------------------------|
--------------------------------|--10(8)----11(10)----13(11)----15(13)----|
--9---9--10h-12--9---9--10h-12--|-----------------------------------------|
--------------------------------|-----------------------------------------|
--------------------------------|-----------------------------------------|
--------------------------------|-----------------------------------------|


   E.   E   S   E   E.   E   S   E      E.   E  S   E   E.   E  S   E   
------------------------------------|----------------------------------|
--10---10----------10---10----------|----------------------------------|
-----------12p-10-----------12p-10--|-----------9h-10-----------9h-10--|
------------------------------------|--12---12---------12---12---------|
------------------------------------|----------------------------------|
------------------------------------|----------------------------------|


  E.  E   S   E  E.  E   S   E      E.   S   S   S  E   E    E   Q      
--------------------------------|----------------------15b--15--13~----|
--------------------------------|-------13h-15p-13---------------------|
--9---9--10h-12--9---9--10h-12--|--14--------------14------------------|
--------------------------------|--------------------------------------|
--------------------------------|--------------------------------------|
--------------------------------|--------------------------------------|


   E.   E   S   E   E.   E   S   E      E.   E   S  E   E.   E   S  E   
------------------------------------|----------------------------------|
--10---10----------10---10----------|--11---11--10-----11---11--10-----|
-----------12p-10-----------12p-10--|--------------12--------------12--|
------------------------------------|----------------------------------|
------------------------------------|----------------------------------|
------------------------------------|----------------------------------|


   E.   E   S   E   E.   E   S   E      W                  
------------------------------------|---------------------|
--13---13--11p-10--13---13--11p-10--|--13b----------------|
------------------------------------|---------------------|
------------------------------------|---------------------|
------------------------------------|---------------------|
------------------------------------|---------------------|


  Intro Riff                                                     
  S          E  E  S E  E  E  E  E     S E  E  S E  E  E  E  E   
------------------------------------|---------------------------|
------------------------------------|---------------------------|
------------------------------------|---------------------------|
--2----------------4----4--5-----2--|--2-------4----4--5-----2--|
--0----------2--5--2-0--2-----5--0--|--0-2--5--2-0--2-----5--0--|
------------------------------3-----|---------------------3-----|


  S E  E  S E  E  E  E  E     S E  E  S E  E  E  E  E   
---------------------------|---------------------------|
---------------------------|---------------------------|
---------------------------|---------------------------|
--2-------4----4--5-----2--|--2-------4----4--5-----2--|
--0-2--5--2-0--2-----5--0--|--0-2--5--2-0--2-----5--0--|
---------------------3-----|---------------------3-----|


    Riff A                                                        
    S      E  E.  Q    E  S  S E       S  E  E.  Q    E  S  S E   
|-------------2--------------------||--------2-------------------|
|-----------------3----2--3p-2-----||------------3----2--3p-2----|
|*--2h-----4-------------------4--*||--2h-4-------------------4--|
|*--------------------------------*||----------------------------|
|----------------------------------||----------------------------|
|----------------------------------||----------------------------|


                               Verso Riff 1                         
  S  E  E.  Q    E  S  S E     S            E  E.  Q    E  S  S E   
--------2-------------------|------------------2-------------------|
------------3----2--3p-2----|----------------------3----2--3p-2----|
--2h-4-------------------4--|--2h-----------4-------------------4--|
----------------------------|--------------------------------------|
----------------------------|--------------------------------------|
----------------------------|--------------------------------------|


  S  E  E.  Q    E  S  S E     S  E  E.  Q    E  S  S E   
--------2-------------------|--------2-------------------|
------------3----2--3p-2----|------------3----2--3p-2----|
--2h-4-------------------4--|--2h-4-------------------4--|
----------------------------|----------------------------|
----------------------------|----------------------------|
----------------------------|----------------------------|


  S S S S S S S S E.  E.  E     S S S S S S S S E.  E.  E   
-----------------------------|-----------------------------|
-----------------------------|-----------------------------|
------------------6---4------|------------------6---4------|
------------------4---2---7--|------------------4---2---7--|
--0-2-2-2-2-2-2-2---------5--|--0-2-2-2-2-2-2-2---------5--|
-----------------------------|-----------------------------|


  S S S S S S S S E.  E.  E     S S S S S S S S E.  E.  E   
-----------------------------|-----------------------------|
-----------------------------|-----------------------------|
------------------6---4------|------------------6---4------|
------------------4---2---7--|------------------4---2---7--|
--0-2-2-2-2-2-2-2---------5--|--0-2-2-2-2-2-2-2---------5--|
-----------------------------|-----------------------------|


  S  E  E.  Q    E  S  S E     S  E  E.  Q    E  S  S E   
--------2-------------------|--------2-------------------|
------------3----2--3p-2----|------------3----2--3p-2----|
--2h-4-------------------4--|--2h-4-------------------4--|
----------------------------|----------------------------|
----------------------------|----------------------------|
----------------------------|----------------------------|


  S  E  E.  Q    E  S  S E     S  E  E.  Q    E  S  S E   
--------2-------------------|--------2-------------------|
------------3----2--3p-2----|------------3----2--3p-2----|
--2h-4-------------------4--|--2h-4-------------------4--|
----------------------------|----------------------------|
----------------------------|----------------------------|
----------------------------|----------------------------|


  S  E  E.  Q    E  S  S E     S  E  E.  Q    E  S  S E   
--------2-------------------|--------2-------------------|
------------3----2--3p-2----|------------3----2--3p-2----|
--2h-4-------------------4--|--2h-4-------------------4--|
----------------------------|----------------------------|
----------------------------|----------------------------|
----------------------------|----------------------------|


  S  E  E.  Q    E  S  S E     S S S S S S S S E.  E.  E   
--------2-------------------|-----------------------------|
------------3----2--3p-2----|-----------------------------|
--2h-4-------------------4--|------------------6---4------|
----------------------------|------------------4---2---7--|
----------------------------|--0-2-2-2-2-2-2-2---------5--|
----------------------------|-----------------------------|


  S S S S S S S S E.  E.  E     S S S S S S S S E.  E.  E   
-----------------------------|-----------------------------|
-----------------------------|-----------------------------|
------------------6---4------|------------------6---4------|
------------------4---2---7--|------------------4---2---7--|
--0-2-2-2-2-2-2-2---------5--|--0-2-2-2-2-2-2-2---------5--|
-----------------------------|-----------------------------|


                                Verso Riff 2                           
  S S S S S S S S E.  E.  E     W                   H        H         
-----------------------------|-------------------|--------------------|
-----------------------------|-------------------|--------------------|
------------------6---4------|--7----------------|--3--------5--------|
------------------4---2---7--|--7----------------|--3--------5--------|
--0-2-2-2-2-2-2-2---------5--|--5----------------|--1--------3--------|
-----------------------------|-------------------|--------------------|


  W                   H        H           W                 
-------------------|--------------------|-------------------|
-------------------|--------------------|-------------------|
--7----------------|--3--------5--------|--7----------------|
--7----------------|--3--------5--------|--7----------------|
--5----------------|--1--------3--------|--5----------------|
-------------------|--------------------|-------------------|


  H        H           W                   H        H         
--------------------|-------------------|--------------------|
--------------------|-------------------|--------------------|
--3--------5--------|--7----------------|--3--------5--------|
--3--------5--------|--7----------------|--3--------5--------|
--1--------3--------|--5----------------|--1--------3--------|
--------------------|-------------------|--------------------|


        Puente                                                             
   E.   E      S   E   E.   E   S   E      E.   E  S   E   E.   E  S   E   
---------------------------------------|----------------------------------|
--10---10-------------10---10----------|----------------------------------|
--------------12p-10-----------12p-10--|-----------9h-10-----------9h-10--|
---------------------------------------|--12---12---------12---12---------|
---------------------------------------|----------------------------------|
---------------------------------------|----------------------------------|


  E.  E   S   E  E.  E   S   E   
--------------------------------|
--------------------------------|
--9---9--10h-12--9---9--10h-12--|
--------------------------------|
--------------------------------|
--------------------------------|


   E.  S   S  S  S  S   S  S  S  S   S   S  S  S  
-------8h-10p-8----------------------------------|
--10------------10p-8h-10p-8---------------------|
-----------------------------10p-9h-12p-10p-9----|
----------------------------------------------12-|
-------------------------------------------------|
-------------------------------------------------|


   Coro B                                                                 
   E.     E   S   E   E.   E   S   E      E.   E  S   E   E.   E  S   E   
--------------------------------------|----------------------------------|
--10-----10----------10---10----------|----------------------------------|
-------------12p-10-----------12p-10--|-----------9h-10-----------9h-10--|
--------------------------------------|--12---12---------12---12---------|
--------------------------------------|----------------------------------|
--------------------------------------|----------------------------------|


                                    tr       tr        tr        tr        
  E.  E   S   E  E.  E   S   E      Q        Q         Q         Q         
--------------------------------|-----------------------------------------|
--------------------------------|--10(8)----11(10)----13(11)----15(13)----|
--9---9--10h-12--9---9--10h-12--|-----------------------------------------|
--------------------------------|-----------------------------------------|
--------------------------------|-----------------------------------------|
--------------------------------|-----------------------------------------|


   E.   E   S   E   E.   E   S   E      E.   E  S   E   E.   E  S   E   
------------------------------------|----------------------------------|
--10---10----------10---10----------|----------------------------------|
-----------12p-10-----------12p-10--|-----------9h-10-----------9h-10--|
------------------------------------|--12---12---------12---12---------|
------------------------------------|----------------------------------|
------------------------------------|----------------------------------|


  E.  E   S   E  E.  E   S   E      E.   S   S   S  E   E    E   Q      
--------------------------------|----------------------15b--15--13~----|
--------------------------------|-------13h-15p-13---------------------|
--9---9--10h-12--9---9--10h-12--|--14--------------14------------------|
--------------------------------|--------------------------------------|
--------------------------------|--------------------------------------|
--------------------------------|--------------------------------------|


   E.   E   S   E   E.   E   S   E      E.   E   S  E   E.   E   S  E   
------------------------------------|----------------------------------|
--10---10----------10---10----------|--11---11--10-----11---11--10-----|
-----------12p-10-----------12p-10--|--------------12--------------12--|
------------------------------------|----------------------------------|
------------------------------------|----------------------------------|
------------------------------------|----------------------------------|


                                        Outro                                  
   E.   E   S   E   E.   E   S   E      W                    W                 
------------------------------------|---------------------|-------------------|
--13---13--11p-10--13---13--11p-10--|--13b----------------|--L----------------|
------------------------------------|---------------------|-------------------|
------------------------------------|---------------------|-------------------|
------------------------------------|---------------------|-------------------|
------------------------------------|---------------------|-------------------|


   W                      W                   H         H         
-----------------------|-------------------|---------------------|
--13brb----------------|--L----------------|--L---------L--------|
-----------------------|-------------------|---------------------|
-----------------------|-------------------|---------------------|
-----------------------|-------------------|---------------------|
-----------------------|-------------------|---------------------|


   H.           Q       
----------------------||
---L------------------||
----------------7\----||
----------------7\----||
----------------5\----||
----------------------||




Guitar #2:
                                  
Adrian Smith

          Intro                                                         
     S    W                   H.           E  E     E  H.           E   
E||----|-------------------|---------------------|---------------------|
B||----|-------------------|---------------------|---------------------|
G||----|-------------------|---------------------|---------------------|
D||----|-------------------|---------------------|---------------------|
A||----|-------------------|------------------7--|--9---------------7--|
E||----|-------------------|------------------5--|--7---------------5--|


                        Riff A                           
  W                     S      E  E.  Q    E  S  S E     
-------------------||----------------------------------||
-------------------||----------------------------------||
-------------------||*--------------------------------*||
-------------------||*------------7---9----7--9p-7----*||
--9----------------||---7h-----9-------------------9---||
--7----------------||----------------------------------||


  S  E  E.  Q    E  S  S E     S  E  E.  Q    E  S  S E   
----------------------------|----------------------------|
----------------------------|----------------------------|
----------------------------|----------------------------|
--------7---9----7--9p-7----|--------7---9----7--9p-7----|
--7h-9-------------------9--|--7h-9-------------------9--|
----------------------------|----------------------------|


  Verso Riff 1                                                      
  S            E  E.  Q    E  S  S E     S  E  E.  Q    E  S  S E   
--------------------------------------|----------------------------|
--------------------------------------|----------------------------|
--------------------------------------|----------------------------|
------------------7---9----7--9p-7----|--------7---9----7--9p-7----|
--7h-----------9-------------------9--|--7h-9-------------------9--|
--------------------------------------|----------------------------|


  S  E  E.  Q    E  S  S E     S S S S S S S S  E.  E.  E   
----------------------------|------------------------------|
----------------------------|------------------------------|
----------------------------|---------------------------7--|
--------7---9----7--9p-7----|------------------11---9---7--|
--7h-9-------------------9--|-------------------9---7------|
----------------------------|--5-7-7-7-7-7-7-7-------------|


  S S S S S S S S  E.  E.  E     S S S S S S S S  E.  E.  E   
------------------------------|------------------------------|
------------------------------|------------------------------|
---------------------------7--|---------------------------7--|
------------------11---9---7--|------------------11---9---7--|
-------------------9---7------|-------------------9---7------|
--5-7-7-7-7-7-7-7-------------|--5-7-7-7-7-7-7-7-------------|


  S S S S S S S S  E.  E.  E     S  E  E.  Q    E  S  S E   
------------------------------|----------------------------|
------------------------------|----------------------------|
---------------------------7--|----------------------------|
------------------11---9---7--|--------7---9----7--9p-7----|
-------------------9---7------|--7h-9-------------------9--|
--5-7-7-7-7-7-7-7-------------|----------------------------|


  S  E  E.  Q    E  S  S E     S  E  E.  Q    E  S  S E   
----------------------------|----------------------------|
----------------------------|----------------------------|
----------------------------|----------------------------|
--------7---9----7--9p-7----|--------7---9----7--9p-7----|
--7h-9-------------------9--|--7h-9-------------------9--|
----------------------------|----------------------------|


  S  E  E.  Q    E  S  S E     S  E  E.  Q    E  S  S E   
----------------------------|----------------------------|
----------------------------|----------------------------|
----------------------------|----------------------------|
--------7---9----7--9p-7----|--------7---9----7--9p-7----|
--7h-9-------------------9--|--7h-9-------------------9--|
----------------------------|----------------------------|


  S  E  E.  Q    E  S  S E     S  E  E.  Q    E  S  S E   
----------------------------|----------------------------|
----------------------------|----------------------------|
----------------------------|----------------------------|
--------7---9----7--9p-7----|--------7---9----7--9p-7----|
--7h-9-------------------9--|--7h-9-------------------9--|
----------------------------|----------------------------|


  S S S S S S S S  E.  E.  E     S S S S S S S S  E.  E.  E   
------------------------------|------------------------------|
------------------------------|------------------------------|
---------------------------7--|---------------------------7--|
------------------11---9---7--|------------------11---9---7--|
-------------------9---7------|-------------------9---7------|
--5-7-7-7-7-7-7-7-------------|--5-7-7-7-7-7-7-7-------------|


  S S S S S S S S  E.  E.  E     S S S S S S S S  E.  E.  E   
------------------------------|------------------------------|
------------------------------|------------------------------|
---------------------------7--|---------------------------7--|
------------------11---9---7--|------------------11---9---7--|
-------------------9---7------|-------------------9---7------|
--5-7-7-7-7-7-7-7-------------|--5-7-7-7-7-7-7-7-------------|


  Verso Riff 2                                                              
  H            E.  E.  E     H          E.  E.  E     H         E.  E.  E   
--------------------------|------------------------|-----------------------|
--------------------------|------------------------|-----------------------|
--------------------------|------------------------|-----------------------|
-------------------2---3--|-----------3g5---3---2--|----------------2---3--|
--5~-----------5----------|--1---------------------|--5~--------5----------|
--------------------------|------------------------|-----------------------|


    E.  E.  E    E.  E.  E     H         E.  E.  E     H          E.  E.  E   
----------------------------|-----------------------|------------------------|
----------------------------|-----------------------|------------------------|
---------------------5------|-----------------------|------------------------|
--3g5---3---5--5g7-------7--|----------------2---3--|-----------3g5---3---2--|
----------------------------|--5~--------5----------|--1---------------------|
----------------------------|-----------------------|------------------------|


  H         E.  E.  E       E.  E.  E    E.  E.  E   
-----------------------|----------------------------|
-----------------------|----------------------------|
-----------------------|---------------------5------|
----------------2---3--|--3g5---3---5--5g7-------7--|
--5~--------5----------|----------------------------|
-----------------------|----------------------------|


  Solo Dave Murray                                                      
  S                E  E.  Q    E  S  S E     S  E  E.  Q    E  S  S E   
------------------------------------------|----------------------------|
------------------------------------------|----------------------------|
------------------------------------------|----------------------------|
----------------------7---9----7--9p-7----|--------7---9----7--9p-7----|
--7h---------------9-------------------9--|--7h-9-------------------9--|
------------------------------------------|----------------------------|


  S  E  E.  Q    E  S  S E     S  E  E.  Q    E  S  S E   
----------------------------|----------------------------|
----------------------------|----------------------------|
----------------------------|----------------------------|
--------7---9----7--9p-7----|--------7---9----7--9p-7----|
--7h-9-------------------9--|--7h-9-------------------9--|
----------------------------|----------------------------|


  S  E  E.  Q    E  S  S E     S  E  E.  Q    E  S  S E   
----------------------------|----------------------------|
----------------------------|----------------------------|
----------------------------|----------------------------|
--------7---9----7--9p-7----|--------7---9----7--9p-7----|
--7h-9-------------------9--|--7h-9-------------------9--|
----------------------------|----------------------------|


  S  E  E.  Q    E  S  S E     S S S S S S S S  E.  E.  E   
----------------------------|------------------------------|
----------------------------|------------------------------|
----------------------------|---------------------------7--|
--------7---9----7--9p-7----|------------------11---9---7--|
--7h-9-------------------9--|-------------------9---7------|
----------------------------|--5-7-7-7-7-7-7-7-------------|


  S S S S S S S S  E.  E.  E     S S S S S S S S  E.  E.  E   
------------------------------|------------------------------|
------------------------------|------------------------------|
---------------------------7--|---------------------------7--|
------------------11---9---7--|------------------11---9---7--|
-------------------9---7------|-------------------9---7------|
--5-7-7-7-7-7-7-7-------------|--5-7-7-7-7-7-7-7-------------|


  S S S S S S S S  E.  E.  E     W                 
------------------------------|-------------------|
------------------------------|-------------------|
---------------------------7--|-------------------|
------------------11---9---7--|--5----------------|
-------------------9---7------|--3----------------|
--5-7-7-7-7-7-7-7-------------|-------------------|


   Puente                                                       
   E.     E  S  E   E.   E  S  E     E.  E  S  E  E.  E  S  E   
----------------------------------|----------------------------|
----------------------------------|----------------------------|
--10-----10--9p-7--10---10--9p-7--|---------5h-7---------5h-7--|
----------------------------------|--8---8--------8---8--------|
----------------------------------|----------------------------|
----------------------------------|----------------------------|


   E.   E  S  E   E.   E  S  E   
--------------------------------|
--------------------------------|
-----------7h-9-----------7h-9--|
--10---10--------10---10--------|
--------------------------------|
--------------------------------|


   E.   S   S   S  S  S   S  S  S  S S  S  S S  
-----------------------------------------------|
-------10h-11p-10------------------------------|
--10--------------10p-9h-10p-9-------9---------|
-------------------------------12-10---12-10-8-|
-----------------------------------------------|
-----------------------------------------------|


   Coro A                                                       
   E.     E  S  E   E.   E  S  E     E.  E  S  E  E.  E  S  E   
----------------------------------|----------------------------|
----------------------------------|----------------------------|
--10-----10--9p-7--10---10--9p-7--|---------5h-7---------5h-7--|
----------------------------------|--8---8--------8---8--------|
----------------------------------|----------------------------|
----------------------------------|----------------------------|


                                   tr      tr       tr       tr        
   E.   E  S  E   E.   E  S  E     Q       Q        Q        Q         
--------------------------------|-------------------------------------|
--------------------------------|--6(5)----8(6)----10(8)----11(10)----|
-----------7h-9-----------7h-9--|-------------------------------------|
--10---10--------10---10--------|-------------------------------------|
--------------------------------|-------------------------------------|
--------------------------------|-------------------------------------|


   E.   E  S  E   E.   E  S  E     E.  E  S  E  E.  E  S  E   
--------------------------------|----------------------------|
--------------------------------|----------------------------|
--10---10--9p-7--10---10--9p-7--|---------5h-7---------5h-7--|
--------------------------------|--8---8--------8---8--------|
--------------------------------|----------------------------|
--------------------------------|----------------------------|


   E.   E  S  E   E.   E  S  E      E.   S   S   S  E   E    E   Q      
--------------------------------|----------------------12b--12--10~----|
--------------------------------|-------10h-11p-10---------------------|
-----------7h-9-----------7h-9--|--10--------------10------------------|
--10---10--------10---10--------|--------------------------------------|
--------------------------------|--------------------------------------|
--------------------------------|--------------------------------------|


   E.   E  S  E   E.   E  S  E     E.  E  S  E  E.  E  S  E   
--------------------------------|----------------------------|
--------------------------------|----------------------------|
--10---10--9p-7--10---10--9p-7--|---------5h-7---------5h-7--|
--------------------------------|--8---8--------8---8--------|
--------------------------------|----------------------------|
--------------------------------|----------------------------|


                                                         Intro Riff        
   E.   E  S  E   E.   E  S  E      W                    W                 
--------------------------------|---------------------|-------------------|
--------------------------------|---------------------|-------------------|
-----------7h-9-----------7h-9--|--12b----------------|-------------------|
--10---10--------10---10--------|---------------------|-------------------|
--------------------------------|---------------------|-------------------|
--------------------------------|---------------------|-------------------|


                      PM PM PM PM PM PM PM PM PM PM PM PM PM PM PM PM  
  W                   S  S  S  S  S  S  S  S  S  S  S  S  S  S  S  S   
-------------------|--------------------------------------------------|
-------------------|--------------------------------------------------|
-------------------|--------------------------------------------------|
-------------------|--------------------------------------------------|
-------------------|--------------------------------------------------|
-------------------|--7--7--7--7--7--7--7--7--7--7--7--7--7--7--7--7--|


  PM PM PM PM PM PM PM PM PM PM PM PM PM PM  
  S  S  S  S  S  S  S  S  S  S  S  S  E  E   
--------------------------------------------|
--------------------------------------------|
--------------------------------------------|
--------------------------------------------|
--------------------------------------------|
--7--7--7--7--7--7--7--7--7--7--7--7--7--5--|


    Riff A                                                        
    S      E  E.  Q    E  S  S E       S  E  E.  Q    E  S  S E   
|----------------------------------||----------------------------|
|----------------------------------||----------------------------|
|*--------------------------------*||----------------------------|
|*------------7---9----7--9p-7----*||--------7---9----7--9p-7----|
|---7h-----9-------------------9---||--7h-9-------------------9--|
|----------------------------------||----------------------------|


                               Verso Riff 1                         
  S  E  E.  Q    E  S  S E     S            E  E.  Q    E  S  S E   
----------------------------|--------------------------------------|
----------------------------|--------------------------------------|
----------------------------|--------------------------------------|
--------7---9----7--9p-7----|------------------7---9----7--9p-7----|
--7h-9-------------------9--|--7h-----------9-------------------9--|
----------------------------|--------------------------------------|


  S  E  E.  Q    E  S  S E     S  E  E.  Q    E  S  S E   
----------------------------|----------------------------|
----------------------------|----------------------------|
----------------------------|----------------------------|
--------7---9----7--9p-7----|--------7---9----7--9p-7----|
--7h-9-------------------9--|--7h-9-------------------9--|
----------------------------|----------------------------|


  S S S S S S S S  E.  E.  E     S S S S S S S S  E.  E.  E   
------------------------------|------------------------------|
------------------------------|------------------------------|
---------------------------7--|---------------------------7--|
------------------11---9---7--|------------------11---9---7--|
-------------------9---7------|-------------------9---7------|
--5-7-7-7-7-7-7-7-------------|--5-7-7-7-7-7-7-7-------------|


  S S S S S S S S  E.  E.  E     S S S S S S S S  E.  E.  E   
------------------------------|------------------------------|
------------------------------|------------------------------|
---------------------------7--|---------------------------7--|
------------------11---9---7--|------------------11---9---7--|
-------------------9---7------|-------------------9---7------|
--5-7-7-7-7-7-7-7-------------|--5-7-7-7-7-7-7-7-------------|


  S  E  E.  Q    E  S  S E     S  E  E.  Q    E  S  S E   
----------------------------|----------------------------|
----------------------------|----------------------------|
----------------------------|----------------------------|
--------7---9----7--9p-7----|--------7---9----7--9p-7----|
--7h-9-------------------9--|--7h-9-------------------9--|
----------------------------|----------------------------|


  S  E  E.  Q    E  S  S E     S  E  E.  Q    E  S  S E   
----------------------------|----------------------------|
----------------------------|----------------------------|
----------------------------|----------------------------|
--------7---9----7--9p-7----|--------7---9----7--9p-7----|
--7h-9-------------------9--|--7h-9-------------------9--|
----------------------------|----------------------------|


  S  E  E.  Q    E  S  S E     S  E  E.  Q    E  S  S E   
----------------------------|----------------------------|
----------------------------|----------------------------|
----------------------------|----------------------------|
--------7---9----7--9p-7----|--------7---9----7--9p-7----|
--7h-9-------------------9--|--7h-9-------------------9--|
----------------------------|----------------------------|


  S  E  E.  Q    E  S  S E     S S S S S S S S  E.  E.  E   
----------------------------|------------------------------|
----------------------------|------------------------------|
----------------------------|---------------------------7--|
--------7---9----7--9p-7----|------------------11---9---7--|
--7h-9-------------------9--|-------------------9---7------|
----------------------------|--5-7-7-7-7-7-7-7-------------|


  S S S S S S S S  E.  E.  E     S S S S S S S S  E.  E.  E   
------------------------------|------------------------------|
------------------------------|------------------------------|
---------------------------7--|---------------------------7--|
------------------11---9---7--|------------------11---9---7--|
-------------------9---7------|-------------------9---7------|
--5-7-7-7-7-7-7-7-------------|--5-7-7-7-7-7-7-7-------------|


                                 Verso Riff 2             
  S S S S S S S S  E.  E.  E     H            E.  E.  E   
------------------------------|--------------------------|
------------------------------|--------------------------|
---------------------------7--|--------------------------|
------------------11---9---7--|-------------------2---3--|
-------------------9---7------|--5~-----------5----------|
--5-7-7-7-7-7-7-7-------------|--------------------------|


  H          E.  E.  E     H         E.  E.  E       E.  E.  E    E.  E.  E   
------------------------|-----------------------|----------------------------|
------------------------|-----------------------|----------------------------|
------------------------|-----------------------|---------------------5------|
-----------3g5---3---2--|----------------2---3--|--3g5---3---5--5g7-------7--|
--1---------------------|--5~--------5----------|----------------------------|
------------------------|-----------------------|----------------------------|


  H         E.  E.  E     H          E.  E.  E     H         E.  E.  E   
-----------------------|------------------------|-----------------------|
-----------------------|------------------------|-----------------------|
-----------------------|------------------------|-----------------------|
----------------2---3--|-----------3g5---3---2--|----------------2---3--|
--5~--------5----------|--1---------------------|--5~--------5----------|
-----------------------|------------------------|-----------------------|


                                Puente                          
    E.  E.  E    E.  E.  E      E.     E  S  E   E.   E  S  E   
----------------------------|----------------------------------|
----------------------------|----------------------------------|
---------------------5------|--10-----10--9p-7--10---10--9p-7--|
--3g5---3---5--5g7-------7--|----------------------------------|
----------------------------|----------------------------------|
----------------------------|----------------------------------|


  E.  E  S  E  E.  E  S  E      E.   E  S  E   E.   E  S  E   
----------------------------|--------------------------------|
----------------------------|--------------------------------|
---------5h-7---------5h-7--|-----------7h-9-----------7h-9--|
--8---8--------8---8--------|--10---10--------10---10--------|
----------------------------|--------------------------------|
----------------------------|--------------------------------|


   E.   S   S   S  S  S   S  S  S   S S  S   S  S  
--------------------------------------------------|
-------10h-11p-10---------------------------------|
--10--------------10p-9h-10p-9--------9-----------|
-------------------------------12p-10---12p-10p-8-|
--------------------------------------------------|
--------------------------------------------------|


   Coro B                                                       
   E.     E  S  E   E.   E  S  E     E.  E  S  E  E.  E  S  E   
----------------------------------|----------------------------|
----------------------------------|----------------------------|
--10-----10--9p-7--10---10--9p-7--|---------5h-7---------5h-7--|
----------------------------------|--8---8--------8---8--------|
----------------------------------|----------------------------|
----------------------------------|----------------------------|


                                   tr      tr       tr       tr        
   E.   E  S  E   E.   E  S  E     Q       Q        Q        Q         
--------------------------------|-------------------------------------|
--------------------------------|--6(5)----8(6)----10(8)----11(10)----|
-----------7h-9-----------7h-9--|-------------------------------------|
--10---10--------10---10--------|-------------------------------------|
--------------------------------|-------------------------------------|
--------------------------------|-------------------------------------|


   E.   E  S  E   E.   E  S  E     E.  E  S  E  E.  E  S  E   
--------------------------------|----------------------------|
--------------------------------|----------------------------|
--10---10--9p-7--10---10--9p-7--|---------5h-7---------5h-7--|
--------------------------------|--8---8--------8---8--------|
--------------------------------|----------------------------|
--------------------------------|----------------------------|


   E.   E  S  E   E.   E  S  E      E.   S   S   S  E   E    E   Q      
--------------------------------|----------------------12b--12--10~----|
--------------------------------|-------10h-11p-10---------------------|
-----------7h-9-----------7h-9--|--10--------------10------------------|
--10---10--------10---10--------|--------------------------------------|
--------------------------------|--------------------------------------|
--------------------------------|--------------------------------------|


   E.   E  S  E   E.   E  S  E      E.   E   S  E   E.   E   S  E   
--------------------------------|----------------------------------|
--------------------------------|----------------------------------|
--10---10--9p-7--10---10--9p-7--|--12---12--10p-9--12---12--10p-9--|
--------------------------------|----------------------------------|
--------------------------------|----------------------------------|
--------------------------------|----------------------------------|


                                       Outro                                 
   E.   E   S   E   E.   E   S   E     W                   W                 
------------------------------------|-------------------|-------------------|
------------------------------------|-------------------|-------------------|
--14---14--12p-10--14---14--12p-10--|--7----------------|--L----------------|
------------------------------------|--7----------------|--L----------------|
------------------------------------|--5----------------|--L----------------|
------------------------------------|-------------------|-------------------|


  W                   W                   W                 
-------------------|-------------------|-------------------|
-------------------|-------------------|-------------------|
--L----------------|--L----------------|--L----------------|
--L----------------|--L----------------|--L----------------|
--L----------------|--L----------------|--L----------------|
-------------------|-------------------|-------------------|


  H.           Q       
---------------------||
---------------------||
---------------7\----||
---------------7\----||
---------------5\----||
---------------------||




Guitar #3:
                                  
Janick Gers

          Intro                                                         
     S    W                   H.           E  E     E  H.           E   
E||----|-------------------|---------------------|---------------------|
B||----|-------------------|---------------------|---------------------|
G||----|-------------------|---------------------|---------------------|
D||----|-------------------|---------------------|---------------------|
A||----|-------------------|------------------7--|--9---------------7--|
E||----|-------------------|------------------5--|--7---------------5--|


                        Riff A                           
  W                     S      E  E.  Q    E  S  S E     
-------------------||----------------------------------||
-------------------||----------------------------------||
-------------------||*------------2---4----2--4p-2----*||
-------------------||*--2h-----4-------------------4--*||
--9----------------||----------------------------------||
--7----------------||----------------------------------||


  S  E  E.  Q    E  S  S E     S  E  E.  Q    E  S  S E   
----------------------------|----------------------------|
----------------------------|----------------------------|
--------2---4----2--4p-2----|--------2---4----2--4p-2----|
--2h-4-------------------4--|--2h-4-------------------4--|
----------------------------|----------------------------|
----------------------------|----------------------------|


  Verso Riff 1                                                      
  S            E  E.  Q    E  S  S E     S  E  E.  Q    E  S  S E   
--------------------------------------|----------------------------|
--------------------------------------|----------------------------|
------------------2---4----2--4p-2----|--------2---4----2--4p-2----|
--2h-----------4-------------------4--|--2h-4-------------------4--|
--------------------------------------|----------------------------|
--------------------------------------|----------------------------|


  S  E  E.  Q    E  S  S E     S S S S S S S S  E.  E.  E   
----------------------------|------------------------------|
----------------------------|------------------------------|
--------2---4----2--4p-2----|---------------------------7--|
--2h-4-------------------4--|------------------11---9---7--|
----------------------------|-------------------9---7------|
----------------------------|--5-7-7-7-7-7-7-7-------------|


  S S S S S S S S  E.  E.  E     S S S S S S S S  E.  E.  E   
------------------------------|------------------------------|
------------------------------|------------------------------|
---------------------------7--|---------------------------7--|
------------------11---9---7--|------------------11---9---7--|
-------------------9---7------|-------------------9---7------|
--5-7-7-7-7-7-7-7-------------|--5-7-7-7-7-7-7-7-------------|


  S S S S S S S S  E.  E.  E     S  E  E.  Q    E  S  S E   
------------------------------|----------------------------|
------------------------------|----------------------------|
---------------------------7--|--------2---4----2--4p-2----|
------------------11---9---7--|--2h-4-------------------4--|
-------------------9---7------|----------------------------|
--5-7-7-7-7-7-7-7-------------|----------------------------|


  S  E  E.  Q    E  S  S E     S  E  E.  Q    E  S  S E   
----------------------------|----------------------------|
----------------------------|----------------------------|
--------2---4----2--4p-2----|--------2---4----2--4p-2----|
--2h-4-------------------4--|--2h-4-------------------4--|
----------------------------|----------------------------|
----------------------------|----------------------------|


  S  E  E.  Q    E  S  S E     S  E  E.  Q    E  S  S E   
----------------------------|----------------------------|
----------------------------|----------------------------|
--------2---4----2--4p-2----|--------2---4----2--4p-2----|
--2h-4-------------------4--|--2h-4-------------------4--|
----------------------------|----------------------------|
----------------------------|----------------------------|


  S  E  E.  Q    E  S  S E     S  E  E.  Q    E  S  S E   
----------------------------|----------------------------|
----------------------------|----------------------------|
--------2---4----2--4p-2----|--------2---4----2--4p-2----|
--2h-4-------------------4--|--2h-4-------------------4--|
----------------------------|----------------------------|
----------------------------|----------------------------|


  S S S S S S S S  E.  E.  E     S S S S S S S S  E.  E.  E   
------------------------------|------------------------------|
------------------------------|------------------------------|
---------------------------7--|---------------------------7--|
------------------11---9---7--|------------------11---9---7--|
-------------------9---7------|-------------------9---7------|
--5-7-7-7-7-7-7-7-------------|--5-7-7-7-7-7-7-7-------------|


  S S S S S S S S  E.  E.  E     S S S S S S S S  E.  E.  E   
------------------------------|------------------------------|
------------------------------|------------------------------|
---------------------------7--|---------------------------7--|
------------------11---9---7--|------------------11---9---7--|
-------------------9---7------|-------------------9---7------|
--5-7-7-7-7-7-7-7-------------|--5-7-7-7-7-7-7-7-------------|


  Verso Riff 2                                               
  W                   H        H           W                 
-------------------|--------------------|-------------------|
-------------------|--------------------|-------------------|
--7----------------|--3--------5--------|--7----------------|
--7----------------|--3--------5--------|--7----------------|
--5----------------|--1--------3--------|--5----------------|
-------------------|--------------------|-------------------|


  H        H           W                   H        H         
--------------------|-------------------|--------------------|
--------------------|-------------------|--------------------|
--3--------5--------|--7----------------|--3--------5--------|
--3--------5--------|--7----------------|--3--------5--------|
--1--------3--------|--5----------------|--1--------3--------|
--------------------|-------------------|--------------------|


  W                   H        H         
-------------------|--------------------|
-------------------|--------------------|
--7----------------|--3--------5--------|
--7----------------|--3--------5--------|
--5----------------|--1--------3--------|
-------------------|--------------------|


  Solo Dave Murray                                                      
  S                E  E.  Q    E  S  S E     S  E  E.  Q    E  S  S E   
----------------------2-------------------|--------2-------------------|
--------------------------3----2--3p-2----|------------3----2--3p-2----|
--2h---------------4-------------------4--|--2h-4-------------------4--|
------------------------------------------|----------------------------|
------------------------------------------|----------------------------|
------------------------------------------|----------------------------|


  S  E  E.  Q    E  S  S E     S  E  E.  Q    E  S  S E   
--------2-------------------|--------2-------------------|
------------3----2--3p-2----|------------3----2--3p-2----|
--2h-4-------------------4--|--2h-4-------------------4--|
----------------------------|----------------------------|
----------------------------|----------------------------|
----------------------------|----------------------------|


  S  E  E.  Q    E  S  S E     S  E  E.  Q    E  S  S E   
--------2-------------------|--------2-------------------|
------------3----2--3p-2----|------------3----2--3p-2----|
--2h-4-------------------4--|--2h-4-------------------4--|
----------------------------|----------------------------|
----------------------------|----------------------------|
----------------------------|----------------------------|


  S  E  E.  Q    E  S  S E     S S S S S S S S E.  E.  E   
--------2-------------------|-----------------------------|
------------3----2--3p-2----|-----------------------------|
--2h-4-------------------4--|------------------6---4---2--|
----------------------------|------------------4---2---0--|
----------------------------|--0-2-2-2-2-2-2-2------------|
----------------------------|-----------------------------|


  S S S S S S S S E.  E.  E     S S S S S S S S E.  E.  E   
-----------------------------|-----------------------------|
-----------------------------|-----------------------------|
------------------6---4---2--|------------------6---4---2--|
------------------4---2---0--|------------------4---2---0--|
--0-2-2-2-2-2-2-2------------|--0-2-2-2-2-2-2-2------------|
-----------------------------|-----------------------------|


  S S S S S S S S E.  E.  E     W                 
-----------------------------|-------------------|
-----------------------------|-------------------|
------------------6---4---2--|-------------------|
------------------4---2---0--|--5----------------|
--0-2-2-2-2-2-2-2------------|--3----------------|
-----------------------------|-------------------|


   Puente                                                       
   E.     E  S  E   E.   E  S  E     E.  E  S  E  E.  E  S  E   
----------------------------------|----------------------------|
----------------------------------|----------------------------|
--10-----10--9p-7--10---10--9p-7--|---------5h-7---------5h-7--|
----------------------------------|--8---8--------8---8--------|
----------------------------------|----------------------------|
----------------------------------|----------------------------|


   E.   E  S  E   E.   E  S  E   
--------------------------------|
--------------------------------|
-----------7h-9-----------7h-9--|
--10---10--------10---10--------|
--------------------------------|
--------------------------------|


   E.   S   S   S  S  S   S  S  S  S S  S  S S  
-----------------------------------------------|
-------10h-11p-10------------------------------|
--10--------------10p-9h-10p-9-------9---------|
-------------------------------12-10---12-10-8-|
-----------------------------------------------|
-----------------------------------------------|


   Coro A                                                       
   E.     E  S  E   E.   E  S  E     E.  E  S  E  E.  E  S  E   
----------------------------------|----------------------------|
----------------------------------|----------------------------|
--10-----10--9p-7--10---10--9p-7--|---------5h-7---------5h-7--|
----------------------------------|--8---8--------8---8--------|            
Submit corrections


        Purgatory lessons Hard to play? Try these video lessons and learn fast Purgatory lessons
        
↑ Back to top | Tablatures and chords for acoustic guitar and electric guitar, ukulele, drums are parodies/interpretations of the original songs. You may use it for private study, scholarship, research or language learning purposes only