» » »

Iron Maiden - Purgatory Drum

Artists:  A B C D E F G H I J K L M N O P Q R S T U V W X Y Z # 

Purgatory Drum

(ver. 1) Click to play this song!
Iron Maiden
 Rating:
4/5 (22 votes)

 Purgatory lessons Tabs too difficult? Try these video lessons and learn fast
 
                          Intro                                                            
     S    W                   H.           E   E      H.           E   E   
C||----|-------------------|------------------38--|--36------------L--38--|
C||----|-------------------|----------------------|--44------------L------|
C||----|-------------------|----------------------|--49------------L------|
C||----|-------------------|----------------------|-----------------------|
C||----|-------------------|----------------------|-----------------------|
C||----|-------------------|----------------------|-----------------------|


                          Riff A                                                
   W                      S      S  S  S  S  S  S  S  S  S  S  S  S  S  S  S    
--36----------------||---36-----44-38-36-44-36-38-44-36-44-38-44-36-44-38-44--||
--44----------------||---44--------44-44----44-44----44----44----44----44-----||
--49----------------||*--49--------------------------------------------------*||
--------------------||*------------------------------------------------------*||
--------------------||--------------------------------------------------------||
--------------------||--------------------------------------------------------||


   S  S  S  S  S  S  S  S  S  S  S  S  S  S  S  S  
--36-44-38-36-44-36-38-44-36-44-38-44-36-44-38-44-|
--44----44-44----44-44----44----44----44----44----|
--49----------------------------------------------|
--------------------------------------------------|
--------------------------------------------------|
--------------------------------------------------|


   S  S  S  S  S  S  S  S  S  S  S  S  S  S  S  S  
--36-44-38-36-44-36-38-44-36-44-38-38-38-38-38-38-|
--44----44-44----44-44----44----44----44----44----|
--49----------------------------------------------|
--------------------------------------------------|
--------------------------------------------------|
--------------------------------------------------|


   Verso Riff 1                                              
   S            S  S  S  S  S  S  S  S  S  S  S  S  S  S  S  
--36-----------44-38-36-44-36-38-44-36-44-38-44-36-44-38-44-|
--44--------------44-44----44-44----44----44----44----44----|
--49--------------------------------------------------------|
------------------------------------------------------------|
------------------------------------------------------------|
------------------------------------------------------------|


   S  S  S  S  S  S  S  S  S  S  S  S  S  S  S  S  
--36-44-38-36-44-36-38-44-36-44-38-44-36-44-38-44-|
--44----44-44----44-44----44----44----44----44----|
--49----------------------------------------------|
--------------------------------------------------|
--------------------------------------------------|
--------------------------------------------------|


   S  S  S  S  S  S  S  S  S  S  S  S  S  S  S  S  
--36-44-38-36-44-36-38-44-36-44-38-44-36-44-38-44-|
--44----44-44----44-44----44----44----44----44----|
--49----------------------------------------------|
--------------------------------------------------|
--------------------------------------------------|
--------------------------------------------------|


   S  S  S  S  S  S  S  S  S  S  S  S  S  S  S  S  
--36-44-38-36-44-36-38-44-36-44-38-44-36-44-38-44-|
--44----44-44----44-44----44----44----44----44----|
--49----------------------57-------49-------57----|
--------------------------------------------------|
--------------------------------------------------|
--------------------------------------------------|


   S  S  S  S  S  S  S  S  S  S  S  S  S  S  S  S  
--36-44-38-36-44-36-38-44-36-44-38-44-36-44-38-44-|
--44----44-44----44-44----44----44----44----44----|
--49----------------------57-------49-------57----|
--------------------------------------------------|
--------------------------------------------------|
--------------------------------------------------|


   S  S  S  S  S  S  S  S  S  S  S  S  S  S  S  S  
--36-44-38-36-44-36-38-44-36-44-38-44-36-44-38-44-|
--44----44-44----44-44----44----44----44----44----|
--49----------------------57-------49-------57----|
--------------------------------------------------|
--------------------------------------------------|
--------------------------------------------------|


   S  S  S  S  S  S  S  S  S  S  S  S  S  S  S  S  
--36-44-38-36-44-36-38-44-36-44-38-44-36-44-38-44-|
--44----44-44----44-44----44----44----44----44----|
--49----------------------57-------49-------57----|
--------------------------------------------------|
--------------------------------------------------|
--------------------------------------------------|


   S  S  S  S  S  S  S  S  S  S  S  S  S  S  S  S  
--36-44-38-36-44-36-38-44-36-44-38-44-36-44-38-44-|
--44----44-44----44-44----44----44----44----44----|
--49----------------------------------------------|
--------------------------------------------------|
--------------------------------------------------|
--------------------------------------------------|


   S  S  S  S  S  S  S  S  S  S  S  S  S  S  S  S  
--36-44-38-36-44-36-38-44-36-44-38-44-36-44-38-44-|
--44----44-44----44-44----44----44----44----44----|
--49----------------------------------------------|
--------------------------------------------------|
--------------------------------------------------|
--------------------------------------------------|


   S  S  S  S  S  S  S  S  S  S  S  S  S  S  S  S  
--36-44-38-36-44-36-38-44-36-44-38-44-36-44-38-44-|
--44----44-44----44-44----44----44----44----44----|
--49----------------------------------------------|
--------------------------------------------------|
--------------------------------------------------|
--------------------------------------------------|


   S  S  S  S  S  S  S  S  S  S  S  S  S  S  S  S  
--36-44-38-36-44-36-38-44-36-44-38--L-38-38-38-38-|
--44----44-44----44-44----44----44----44----44----|
--49----------------------------------------------|
--------------------------------------------------|
--------------------------------------------------|
--------------------------------------------------|


   S  S  S  S  S  S  S  S  S  S  S  S  S  S  S  S  
--36-44-38-36-44-36-38-44-36-44-38-44-36-44-38-44-|
--44----44-44----44-44----44----44----44----44----|
--49----------------------------------------------|
--------------------------------------------------|
--------------------------------------------------|
--------------------------------------------------|


   S  S  S  S  S  S  S  S  S  S  S  S  S  S  S  S  
--36-44-38-36-44-36-38-44-36-44-38-44-36-44-38-44-|
--44----44-44----44-44----44----44----44----44----|
--49----------------------------------------------|
--------------------------------------------------|
--------------------------------------------------|
--------------------------------------------------|


   S  S  S  S  S  S  S  S  S  S  S  S  S  S  S  S  
--36-44-38-36-44-36-38-44-36-44-38-44-36-44-38-44-|
--44----44-44----44-44----44----44----44----44----|
--49----------------------------------------------|
--------------------------------------------------|
--------------------------------------------------|
--------------------------------------------------|


   S  S  S  S  S  S  S  S  S  S  S  S  S  S  S  S  
--36-44-38-36-44-36-38-44-36-44-38-44-36-44-38-44-|
--44----44-44----44-44----44----44----44----44----|
--49----------------------57-------49-------57----|
--------------------------------------------------|
--------------------------------------------------|
--------------------------------------------------|


   S  S  S  S  S  S  S  S  S  S  S  S  S  S  S  S  
--36-44-38-36-44-36-38-44-36-44-38-44-36-44-38-44-|
--44----44-44----44-44----44----44----44----44----|
--49----------------------57-------49-------57----|
--------------------------------------------------|
--------------------------------------------------|
--------------------------------------------------|


   S  S  S  S  S  S  S  S  S  S  S  S  S  S  S  S  
--36-44-38-36-44-36-38-44-36-44-38-44-36-44-38-44-|
--44----44-44----44-44----44----44----44----44----|
--49----------------------57-------49-------57----|
--------------------------------------------------|
--------------------------------------------------|
--------------------------------------------------|


   S  S  S  S  S  S  S  S  S  S  S  S  S  S  S  S  
--36-44-38-36-44-36-38-44-36-44-38-44-36-44-38-44-|
--44----44-44----44-44----44----44----44----44----|
--49----------------------57-------49-------57----|
--------------------------------------------------|
--------------------------------------------------|
--------------------------------------------------|


   Verso Riff 2                                              
   S            S  S  S  S  S  S  S  S  S  S  S  S  S  S  S  
--36-----------44-38-36-44-36-38-44-36-44-38-44-36-44-38-44-|
--44--------------44-44----44-44----44----44----44----44----|
--49--------------------------------------------------------|
------------------------------------------------------------|
------------------------------------------------------------|
------------------------------------------------------------|


   S  S  S  S  S  S  S  S  S  S  S  S  S  S  S  S  
--36-44-38-36-44-36-38-44-36-44-38-44-36-44-38-44-|
--44----44-44----44-44----44----44----44----44----|
--------------------------------------------------|
--------------------------------------------------|
--------------------------------------------------|
--------------------------------------------------|


   S  S  S  S  S  S  S  S  S  S  S  S  S  S  S  S  
--36-44-38-36-44-36-38-44-36-44-38-44-36-44-38-44-|
--44----44-44----44-44----44----44----44----44----|
--49----------------------------------------------|
--------------------------------------------------|
--------------------------------------------------|
--------------------------------------------------|


   S  S  S  S  S  S  S  S  S  S  S  S  S  S  S  S  
--36-44-38-36-44-36-38-44-36-44-38-44-36-44-38-44-|
--44----44-44----44-44----44----44----44----44----|
--------------------------------------------------|
--------------------------------------------------|
--------------------------------------------------|
--------------------------------------------------|


   S  S  S  S  S  S  S  S  S  S  S  S  S  S  S  S  
--36-44-38-36-44-36-38-44-36-44-38-44-36-44-38-44-|
--44----44-44----44-44----44----44----44----44----|
--49----------------------------------------------|
--------------------------------------------------|
--------------------------------------------------|
--------------------------------------------------|


   S  S  S  S  S  S  S  S  S  S  S  S  S  S  S  S  
--36-44-38-36-44-36-38-44-36-44-38-44-36-44-38-44-|
--44----44-44----44-44----44----44----44----44----|
--------------------------------------------------|
--------------------------------------------------|
--------------------------------------------------|
--------------------------------------------------|


   S  S  S  S  S  S  S  S  S  S  S  S  S  S  S  S  
--36-44-38-36-44-36-38-44-36-44-38-44-36-44-38-44-|
--44----44-44----44-44----44----44----44----44----|
--49----------------------------------------------|
--------------------------------------------------|
--------------------------------------------------|
--------------------------------------------------|


   S  S  S  S  S  S  S  S  S  S  S  S  S  S  S  S  
--36-44-38-36-44-36-38-44-36-44-38-44-36-44-38-44-|
--44----44-44----44-44----44----44----44----44----|
--------------------------------------------------|
--------------------------------------------------|
--------------------------------------------------|
--------------------------------------------------|


   Solo Dave Murray                                              
   S                S  S  S  S  S  S  S  S  S  S  S  S  S  S  S  
--36---------------44-38-36-44-36-38-44-36-44-38-44-36-44-38-44-|
--44------------------44-44----44-44----44----44----44----44----|
--49------------------------------------------------------------|
----------------------------------------------------------------|
----------------------------------------------------------------|
----------------------------------------------------------------|


   S  S  S  S  S  S  S  S  S  S  S  S  S  S  S  S  
--36-44-38-36-44-36-38-44-36-44-38-44-36-44-38-44-|
--44----44-44----44-44----44----44----44----44----|
--49----------------------------------------------|
--------------------------------------------------|
--------------------------------------------------|
--------------------------------------------------|


   S  S  S  S  S  S  S  S  S  S  S  S  S  S  S  S  
--36-44-38-36-44-36-38-44-36-44-38-44-36-44-38-44-|
--44----44-44----44-44----44----44----44----44----|
--49----------------------------------------------|
--------------------------------------------------|
--------------------------------------------------|
--------------------------------------------------|


   S  S  S  S  S  S  S  S  S  S  S  S  S  S  S  S  
--36-44-38-36-44-36-38-44-36-44-38-38-38-38-38-38-|
--44----44-44----44-44----44----44----44----44----|
--49----------------------------------------------|
--------------------------------------------------|
--------------------------------------------------|
--------------------------------------------------|


   S  S  S  S  S  S  S  S  S  S  S  S  S  S  S  S  
--36-44-38-36-44-36-38-44-36-44-38-44-36-44-38-44-|
--44----44-44----44-44----44----44----44----44----|
--49----------------------------------------------|
--------------------------------------------------|
--------------------------------------------------|
--------------------------------------------------|


   S  S  S  S  S  S  S  S  S  S  S  S  S  S  S  S  
--36-44-38-36-44-36-38-44-36-44-38-44-36-44-38-44-|
--44----44-44----44-44----44----44----44----44----|
--49----------------------------------------------|
--------------------------------------------------|
--------------------------------------------------|
--------------------------------------------------|


   S  S  S  S  S  S  S  S  S  S  S  S  S  S  S  S  
--36-44-38-36-44-36-38-44-36-44-38-44-36-44-38-44-|
--44----44-44----44-44----44----44----44----44----|
--49----------------------------------------------|
--------------------------------------------------|
--------------------------------------------------|
--------------------------------------------------|


   S  S  S  S  S  S  S  S  S  S  S  S  S  S  S  S  
--36-44-38-36-44-36-38-44-36-44-38-44-36-44-38-44-|
--44----44-44----44-44----44----44----44----44----|
--49----------------------57-------49-------57----|
--------------------------------------------------|
--------------------------------------------------|
--------------------------------------------------|


   S  S  S  S  S  S  S  S  S  S  S  S  S  S  S  S  
--36-44-38-36-44-36-38-44-36-44-38-44-36-44-38-44-|
--44----44-44----44-44----44----44----44----44----|
--49----------------------57-------49-------57----|
--------------------------------------------------|
--------------------------------------------------|
--------------------------------------------------|


   S  S  S  S  S  S  S  S  S  S  S  S  S  S  S  S  
--36-44-38-36-44-36-38-44-36-44-38-44-36-44-38-44-|
--44----44-44----44-44----44----44----44----44----|
--49----------------------57-------49-------57----|
--------------------------------------------------|
--------------------------------------------------|
--------------------------------------------------|


   S  S  S  S  S  S  S  S  S  S  S  S  S  S  S  S  
--36-44-38-36-44-36-38-44-36-44-38-44-36-44-38-44-|
--44----44-44----44-44----44----44----44----44----|
--49----------------------57-------49-------57----|
--------------------------------------------------|
--------------------------------------------------|
--------------------------------------------------|


   S  S  S  S  S  S  S  S  S  S  S  S  S  S  S  S  
--36-44-38-36-44-36-38-44-36-44-38-44-36-44-38-44-|
--44----44-44----44-44----44----44----44----44----|
--49----------------------------------------------|
--------------------------------------------------|
--------------------------------------------------|
--------------------------------------------------|


   Puente                                              
   S      S  S  S  S  S  S  S  S  S  S  S  S  S  S  S  
--36------L-38-36--L-36-38--L-36--L-38-36--L-36-38--L-|
------------------------------------------------------|
------------------------------------------------------|
------------------------------------------------------|
------------------------------------------------------|
------------------------------------------------------|


   S  S  S  S  S  S  S  S  S  S  S  S  S  S  S  S  
--36--L-38-36--L-36-38--L-36--L-38-36--L-36-38--L-|
--------------------------------------------------|
--------------------------------------------------|
--------------------------------------------------|
--------------------------------------------------|
--------------------------------------------------|


   S  S  S  S  S  S  S  S  S  S  S  S  S  S  S  S  
--36--L-38-36--L-36-38--L-36--L-38-36--L-36-38--L-|
--------------------------------------------------|
--------------------------------------------------|
--------------------------------------------------|
--------------------------------------------------|
--------------------------------------------------|


   E.   S  S  S  S  S  S  S  S  S  S  S  S  S  
--36---50-50-48-48-47-47-48-48-45-45-43-41-41-|
--49------------------------------------------|
----------------------------------------------|
----------------------------------------------|
----------------------------------------------|
----------------------------------------------|


   Coro A                                              
   S      S  S  S  S  S  S  S  S  S  S  S  S  S  S  S  
--36------L-38-36--L-36-38--L-36--L-38-36--L-36-38--L-|
------------------------------------------------------|
------------------------------------------------------|
------------------------------------------------------|
------------------------------------------------------|
------------------------------------------------------|


   S  S  S  S  S  S  S  S  S  S  S  S  S  S  S  S  
--36--L-38-36--L-36-38--L-36--L-38-36--L-36-38--L-|
--------------------------------------------------|
--------------------------------------------------|
--------------------------------------------------|
--------------------------------------------------|
--------------------------------------------------|


   S  S  S  S  S  S  S  S  S  S  S  S  S  S  S  S  
--36--L-38-36--L-36-38--L-36--L-38-36--L-36-38--L-|
--------------------------------------------------|
--------------------------------------------------|
--------------------------------------------------|
--------------------------------------------------|
--------------------------------------------------|


   S  S  S  S  S  S  S  S  S  S  S  S  S  S  S  S  
--36--L-38-36--L-36-38--L-38-38-38-38-38-38-38-38-|
--------------------------------------------------|
--------------------------------------------------|
--------------------------------------------------|
--------------------------------------------------|
--------------------------------------------------|


   S  S  S  S  S  S  S  S  S  S  S  S  S  S  S  S  
--36--L-38-36--L-36-38--L-36--L-38-36--L-36-38--L-|
--------------------------------------------------|
--------------------------------------------------|
--------------------------------------------------|
--------------------------------------------------|
--------------------------------------------------|


   S  S  S  S  S  S  S  S  S  S  S  S  S  S  S  S  
--36--L-38-36--L-36-38--L-36--L-38-36--L-36-38--L-|
--------------------------------------------------|
--------------------------------------------------|
--------------------------------------------------|
--------------------------------------------------|
--------------------------------------------------|


   S  S  S  S  S  S  S  S  S  S  S  S  S  S  S  S  
--36--L-38-36--L-36-38--L-36--L-38-36--L-36-38--L-|
--------------------------------------------------|
--------------------------------------------------|
--------------------------------------------------|
--------------------------------------------------|
--------------------------------------------------|


   E.   S  S  S  E   E   E   Q     
--36---38-38-38-36--36--36--36----|
--49------------49--57--49--57----|
----------------------------------|
----------------------------------|
----------------------------------|
----------------------------------|


   S  S  S  S  S  S  S  S  S  S  S  S  S  S  S  S  
--36--L-38-36--L-36-38--L-36--L-38-36--L-36-38--L-|
--------------------------------------------------|
--------------------------------------------------|
--------------------------------------------------|
--------------------------------------------------|
--------------------------------------------------|


   S  S  S  S  S  S  S  S  S  S  S  S  S  S  S  S  
--36--L-38-36--L-36-38--L-36--L-38-36--L-36-38--L-|
--------------------------------------------------|
--------------------------------------------------|
--------------------------------------------------|
--------------------------------------------------|
--------------------------------------------------|


   S  S  S  S  S  S  S  S  S  S  S  S  S  S  S  S  
--36--L-38-36--L-36-38--L-36--L-38-36--L-36-38--L-|
--------------------------------------------------|
--------------------------------------------------|
--------------------------------------------------|
--------------------------------------------------|
--------------------------------------------------|


   S  S  S  S  S  S  S  S  S  S  S  S  S  S  S  S  
--48-48-47-47-45-45-50-50-48-48-47-47-45-45-43-43-|
--------------------------------------------------|
--------------------------------------------------|
--------------------------------------------------|
--------------------------------------------------|
--------------------------------------------------|


   Intro Riff                                              
   S          S  S  S  S  S  S  S  S  S  S  S  S  S  S  S  
--36---------44-38-36-44-36-38-44-36-44-38-44-36-44-38-44-|
--44------------44-44----44-44----44----44----44----44----|
--49------------------------------------------------------|
----------------------------------------------------------|
----------------------------------------------------------|
----------------------------------------------------------|


   S  S  S  S  S  S  S  S  S  S  S  S  S  S  S  S  
--36-44-38-36-44-36-38-44-36-44-38-44-36-44-38-44-|
--44----44-44----44-44----44----44----44----44----|
--------------------------------------------------|
--------------------------------------------------|
--------------------------------------------------|
--------------------------------------------------|


   S  S  S  S  S  S  S  S  S  S  S  S  S  S  S  S  
--36-44-38-36-44-36-38-44-36-44-38-44-36-44-38-44-|
--44----44-44----44-44----44----44----44----44----|
--------------------------------------------------|
--------------------------------------------------|
--------------------------------------------------|
--------------------------------------------------|


   S  S  S  S  S  S  S  S  S  S  S  S  E      E   
--36-44-38-36-44-36-38-38-38-38-38-38-38--38g38--|
--44----44-44----44-44----44----44----44---------|
--------------------------------------36---------|
-------------------------------------------------|
-------------------------------------------------|
-------------------------------------------------|


     Riff A                                                
     S      S  S  S  S  S  S  S  S  S  S  S  S  S  S  S    
|---36-----44-38-36-44-36-38-44-36-44-38-44-36-44-38-44--||
|---44--------44-44----44-44----44----44----44----44-----||
|*--49--------------------------------------------------*||
|*------------------------------------------------------*||
|--------------------------------------------------------||
|--------------------------------------------------------||


   S  S  S  S  S  S  S  S  S  S  S  S  S  S  S  S  
--36-44-38-36-44-36-38-44-36-44-38-44-36-44-38-44-|
--44----44-44----44-44----44----44----44----44----|
--49----------------------------------------------|
--------------------------------------------------|
--------------------------------------------------|
--------------------------------------------------|


   S  S  S  S  S  S  S  S  S  S  S  S  S  S  S  S  
--36-44-38-36-44-36-38-44-36-44-38-38-38-38-38-38-|
--44----44-44----44-44----44----44----44----44----|
--49----------------------------------------------|
--------------------------------------------------|
--------------------------------------------------|
--------------------------------------------------|


   Verso Riff 1                                              
   S            S  S  S  S  S  S  S  S  S  S  S  S  S  S  S  
--36-----------44-38-36-44-36-38-44-36-44-38-44-36-44-38-44-|
--44--------------44-44----44-44----44----44----44----44----|
--49--------------------------------------------------------|
------------------------------------------------------------|
------------------------------------------------------------|
------------------------------------------------------------|


   S  S  S  S  S  S  S  S  S  S  S  S  S  S  S  S  
--36-44-38-36-44-36-38-44-36-44-38-44-36-44-38-44-|
--44----44-44----44-44----44----44----44----44----|
--49----------------------------------------------|
--------------------------------------------------|
--------------------------------------------------|
--------------------------------------------------|


   S  S  S  S  S  S  S  S  S  S  S  S  S  S  S  S  
--36-44-38-36-44-36-38-44-36-44-38-44-36-44-38-44-|
--44----44-44----44-44----44----44----44----44----|
--49----------------------------------------------|
--------------------------------------------------|
--------------------------------------------------|
--------------------------------------------------|


   S  S  S  S  S  S  S  S  S  S  S  S  S  S  S  S  
--36-44-38-36-44-36-38-44-36-44-38-44-36-44-38-44-|
--44----44-44----44-44----44----44----44----44----|
--49----------------------57-------49-------57----|
--------------------------------------------------|
--------------------------------------------------|
--------------------------------------------------|


   S  S  S  S  S  S  S  S  S  S  S  S  S  S  S  S  
--36-44-38-36-44-36-38-44-36-44-38-44-36-44-38-44-|
--44----44-44----44-44----44----44----44----44----|
--49----------------------57-------49-------57----|
--------------------------------------------------|
--------------------------------------------------|
--------------------------------------------------|


   S  S  S  S  S  S  S  S  S  S  S  S  S  S  S  S  
--36-44-38-36-44-36-38-44-36-44-38-44-36-44-38-44-|
--44----44-44----44-44----44----44----44----44----|
--49----------------------57-------49-------57----|
--------------------------------------------------|
--------------------------------------------------|
--------------------------------------------------|


   S  S  S  S  S  S  S  S  S  S  S  S  S  S  S  S  
--36-44-38-36-44-36-38-44-36-44-38-44-36-44-38-44-|
--44----44-44----44-44----44----44----44----44----|
--49----------------------57-------49-------57----|
--------------------------------------------------|
--------------------------------------------------|
--------------------------------------------------|


   S  S  S  S  S  S  S  S  S  S  S  S  S  S  S  S  
--36-44-38-36-44-36-38-44-36-44-38-44-36-44-38-44-|
--44----44-44----44-44----44----44----44----44----|
--49----------------------------------------------|
--------------------------------------------------|
--------------------------------------------------|
--------------------------------------------------|


   S  S  S  S  S  S  S  S  S  S  S  S  S  S  S  S  
--36-44-38-36-44-36-38-44-36-44-38-44-36-44-38-44-|
--44----44-44----44-44----44----44----44----44----|
--49----------------------------------------------|
--------------------------------------------------|
--------------------------------------------------|
--------------------------------------------------|


   S  S  S  S  S  S  S  S  S  S  S  S  S  S  S  S  
--36-44-38-36-44-36-38-44-36-44-38-44-36-44-38-44-|
--44----44-44----44-44----44----44----44----44----|
--49----------------------------------------------|
--------------------------------------------------|
--------------------------------------------------|
--------------------------------------------------|


   S  S  S  S  S  S  S  S  S  S  S  S  S  S  S  S  
--36-44-38-36-44-36-38-44-36-44-38-38-38-47-45-43-|
--44----44-44----44-44----44----44----44----------|
--49----------------------------------------------|
--------------------------------------------------|
--------------------------------------------------|
--------------------------------------------------|


   S  S  S  S  S  S  S  S  S  S  S  S  S  S  S  S  
--36-44-38-36-44-36-38-44-36-44-38-44-36-44-38-44-|
--44----44-44----44-44----44----44----44----44----|
--49----------------------------------------------|
--------------------------------------------------|
--------------------------------------------------|
--------------------------------------------------|


   S  S  S  S  S  S  S  S  S  S  S  S  S  S  S  S  
--36-44-38-36-44-36-38-44-36-44-38-44-36-44-38-44-|
--44----44-44----44-44----44----44----44----44----|
--49----------------------------------------------|
--------------------------------------------------|
--------------------------------------------------|
--------------------------------------------------|


   S  S  S  S  S  S  S  S  S  S  S  S  S  S  S  S  
--36-44-38-36-44-36-38-44-36-44-38-44-36-44-38-44-|
--44----44-44----44-44----44----44----44----44----|
--49----------------------------------------------|
--------------------------------------------------|
--------------------------------------------------|
--------------------------------------------------|


   S  S  S  S  S  S  S  S  S  S  S  S  S  S  S  S  
--36-44-38-36-44-36-38-44-36-44-38-44-36-44-38-44-|
--44----44-44----44-44----44----44----44----44----|
--49----------------------57-------49-------57----|
--------------------------------------------------|
--------------------------------------------------|
--------------------------------------------------|


   S  S  S  S  S  S  S  S  S  S  S  S  S  S  S  S  
--36-44-38-36-44-36-38-44-36-44-38-44-36-44-38-44-|
--44----44-44----44-44----44----44----44----44----|
--49----------------------57-------49-------57----|
--------------------------------------------------|
--------------------------------------------------|
--------------------------------------------------|


   S  S  S  S  S  S  S  S  S  S  S  S  S  S  S  S  
--36-44-38-36-44-36-38-44-36-44-38-44-36-44-38-44-|
--44----44-44----44-44----44----44----44----44----|
--49----------------------57-------49-------57----|
--------------------------------------------------|
--------------------------------------------------|
--------------------------------------------------|


   S  S  S  S  S  S  S  S  S  S  S  S  S  S  S  S  
--36-44-38-36-44-36-38-44-36-44-38-44-36-44-38-44-|
--44----44-44----44-44----44----44----44----44----|
--49----------------------57-------49-------57----|
--------------------------------------------------|
--------------------------------------------------|
--------------------------------------------------|


   Verso Riff 2                                              
   S            S  S  S  S  S  S  S  S  S  S  S  S  S  S  S  
--36-----------44-38-36-44-36-38-44-36-44-38-44-36-44-38-44-|
--44--------------44-44----44-44----44----44----44----44----|
--49--------------------------------------------------------|
------------------------------------------------------------|
------------------------------------------------------------|
------------------------------------------------------------|


   S  S  S  S  S  S  S  S  S  S  S  S  S  S  S  S  
--36-44-38-36-44-36-38-44-36-44-38-44-36-44-38-44-|
--44----44-44----44-44----44----44----44----44----|
--------------------------------------------------|
--------------------------------------------------|
--------------------------------------------------|
--------------------------------------------------|


   S  S  S  S  S  S  S  S  S  S  S  S  S  S  S  S  
--36-44-38-36-44-36-38-44-36-44-38-44-36-44-38-44-|
--44----44-44----44-44----44----44----44----44----|
--49----------------------------------------------|
--------------------------------------------------|
--------------------------------------------------|
--------------------------------------------------|


   S  S  S  S  S  S  S  S  S  S  S  S  S  S  S  S  
--36-44-38-36-44-36-38-44-36-44-38-44-36-44-38-44-|
--44----44-44----44-44----44----44----44----44----|
--------------------------------------------------|
--------------------------------------------------|
--------------------------------------------------|
--------------------------------------------------|


   S  S  S  S  S  S  S  S  S  S  S  S  S  S  S  S  
--36-44-38-36-44-36-38-44-36-44-38-44-36-44-38-44-|
--44----44-44----44-44----44----44----44----44----|
--49----------------------------------------------|
--------------------------------------------------|
--------------------------------------------------|
--------------------------------------------------|


   S  S  S  S  S  S  S  S  S  S  S  S  S  S  S  S  
--36-44-38-36-44-36-38-44-36-44-38-44-36-44-38-44-|
--44----44-44----44-44----44----44----44----44----|
--------------------------------------------------|
--------------------------------------------------|
--------------------------------------------------|
--------------------------------------------------|


   S  S  S  S  S  S  S  S  S  S  S  S  S  S  S  S  
--36-44-38-36-44-36-38-44-36-44-38-44-36-44-38-44-|
--44----44-44----44-44----44----44----44----44----|
--49----------------------------------------------|
--------------------------------------------------|
--------------------------------------------------|
--------------------------------------------------|


   S  S  S  S  S  S  S  S  S  S  S  S  S  S  S  S  
--36-44-38-36-44-36-38-44-36-44-38-44-36-44-38-44-|
--44----44-44----44-44----44----44----44----44----|
--------------------------------------------------|
--------------------------------------------------|
--------------------------------------------------|
--------------------------------------------------|


   Puente                                              
   S      S  S  S  S  S  S  S  S  S  S  S  S  S  S  S  
--36------L-38-36--L-36-38--L-36--L-38-36--L-36-38--L-|
------------------------------------------------------|
------------------------------------------------------|
------------------------------------------------------|
------------------------------------------------------|
------------------------------------------------------|


   S  S  S  S  S  S  S  S  S  S  S  S  S  S  S  S  
--36--L-38-36--L-36-38--L-36--L-38-36--L-36-38--L-|
--------------------------------------------------|
--------------------------------------------------|
--------------------------------------------------|
--------------------------------------------------|
--------------------------------------------------|


   S  S  S  S  S  S  S  S  S  S  S  S  S  S  S  S  
--36--L-38-36--L-36-38--L-36--L-38-36--L-36-38--L-|
--------------------------------------------------|
--------------------------------------------------|
--------------------------------------------------|
--------------------------------------------------|
--------------------------------------------------|


   E.   S  S  S  S  S  S  S  S  S  S  S  S  S  
--36---50-50-48-48-47-47-48-48-45-45-43-41-41-|
--49------------------------------------------|
----------------------------------------------|
----------------------------------------------|
----------------------------------------------|
----------------------------------------------|


   Coro B                                              
   S      S  S  S  S  S  S  S  S  S  S  S  S  S  S  S  
--36------L-38-36--L-36-38--L-36--L-38-36--L-36-38--L-|
------------------------------------------------------|
------------------------------------------------------|
------------------------------------------------------|
------------------------------------------------------|
------------------------------------------------------|


   S  S  S  S  S  S  S  S  S  S  S  S  S  S  S  S  
--36--L-38-36--L-36-38--L-36--L-38-36--L-36-38--L-|
--------------------------------------------------|
--------------------------------------------------|
--------------------------------------------------|
--------------------------------------------------|
--------------------------------------------------|


   S  S  S  S  S  S  S  S  S  S  S  S  S  S  S  S  
--36--L-38-36--L-36-38--L-36--L-38-36--L-36-38--L-|
--------------------------------------------------|
--------------------------------------------------|
--------------------------------------------------|
--------------------------------------------------|
--------------------------------------------------|


   S  S  S  S  S  S  S  S  S  S  S  S  S  S  S  S  
--36--L-38-36--L-36-38--L-38-38-38-38-38-38-38-38-|
--------------------------------------------------|
--------------------------------------------------|
--------------------------------------------------|
--------------------------------------------------|
--------------------------------------------------|


   S  S  S  S  S  S  S  S  S  S  S  S  S  S  S  S  
--36--L-38-36--L-36-38--L-36--L-38-36--L-36-38--L-|
--------------------------------------------------|
--------------------------------------------------|
--------------------------------------------------|
--------------------------------------------------|
--------------------------------------------------|


   S  S  S  S  S  S  S  S  S  S  S  S  S  S  S  S  
--36--L-38-36--L-36-38--L-36--L-38-36--L-36-38--L-|
--------------------------------------------------|
--------------------------------------------------|
--------------------------------------------------|
--------------------------------------------------|
--------------------------------------------------|


   S  S  S  S  S  S  S  S  S  S  S  S  S  S  S  S  
--36--L-38-36--L-36-38--L-36--L-38-36--L-36-38--L-|
--------------------------------------------------|
--------------------------------------------------|
--------------------------------------------------|
--------------------------------------------------|
--------------------------------------------------|


   E.   S  S  S  E   E   E   Q     
--36---38-38-38-36--36--36--36----|
--49------------49--57--49--57----|
----------------------------------|
----------------------------------|
----------------------------------|
----------------------------------|


   S  S  S  S  S  S  S  S  S  S  S  S  S  S  S  S  
--36--L-38-36--L-36-38--L-36--L-38-36--L-36-38--L-|
--------------------------------------------------|
--------------------------------------------------|
--------------------------------------------------|
--------------------------------------------------|
--------------------------------------------------|


   S  S  S  S  S  S  S  S  S  S  S  S  S  S  S  S  
--36--L-38-36--L-36-38--L-36--L-38-36--L-36-38--L-|
--------------------------------------------------|
--------------------------------------------------|
--------------------------------------------------|
--------------------------------------------------|
--------------------------------------------------|


   S  S  S  S  S  S  S  S  S  S  S  S  S  S  S  S  
--36--L-38-36--L-36-38--L-36--L-38-36--L-36-38--L-|
--------------------------------------------------|
--------------------------------------------------|
--------------------------------------------------|
--------------------------------------------------|
--------------------------------------------------|


   Outro                                                                   
         |--3--|  |--3--|  |--3--|     |--3--|  |--3--|  |--3--|  |--3--|  
   S     S  S  S  S  S  S  S  S  S  S  S  S  S  S  S  S  S  S  S  S  S  S  
--36----38-38-38-45-47-47-48-48-50-50-48-48-47-47-45-47-41-43-47-41-43-45-|
--44----------------------------------------------------------------------|
--49----------------------------------------------------------------------|
--------------------------------------------------------------------------|
--------------------------------------------------------------------------|
--------------------------------------------------------------------------|


   |--3--|  |--3--|  |--3--|  |--3--|  |--3--|  |--3--|              
   S  S  S  S  S  S  S  S  S  S  S  S  S  S  S  S  S  S  S  S  S  S  
--45-43-43-41-41-50-50-48-48-45-45-47-47-45-45-43-41-43-47-45-43-41-|
--------------------------------------------------------------------|
--------------------------------------------------------------------|
--------------------------------------------------------------------|
--------------------------------------------------------------------|
--------------------------------------------------------------------|


                           |--3--|  |--3--|              
   S  S  S  S  S  S  S  S  S  S  S  S  S  S  S  S  S  S  
--43-41-48-47-45-43-45-48-47-50-48-47-45-43-41-43-45-47-|
--------------------------------------------------------|
--------------------------------------------------------|
--------------------------------------------------------|
--------------------------------------------------------|
--------------------------------------------------------|


                           |---3---|   |---3---|   
   S  S  S  S  S  S  S  S  E   E   E   E   E   E   
--48-48-47-47-45-43-41-41-48--47--45--43--41--45--|
--------------------------------------------------|
--------------------------------------------------|
--------------------------------------------------|
--------------------------------------------------|
--------------------------------------------------|


   E   E   E   E   E   E   E   E      E   E   E      E  E  E   Q      
--48--47--45--43--45--43--41--43--|--41--36--36--38g38--------36----||
----------------------------------|---------------------------44----||
----------------------------------|---------------------------46----||
----------------------------------|---------------------------49----||
----------------------------------|---------------------------------||
----------------------------------|---------------------------------|            
Submit corrections


        Purgatory lessons Hard to play? Try these video lessons and learn fast Purgatory lessons
        
↑ Back to top | Tablatures and chords for acoustic guitar and electric guitar, ukulele, drums are parodies/interpretations of the original songs. You may use it for private study, scholarship, research or language learning purposes only