» » »

Iron Maiden - The Red And The Black Tabs

Artists:  A B C D E F G H I J K L M N O P Q R S T U V W X Y Z # 

The Red And The Black Tabs

(ver. 1) Click to play this song!
Iron Maiden
 Rating:
3/5 (29 votes)

 The Red And The Black  lessons Tabs too difficult? Try these video lessons and learn fast
 
                1:14
e-----------------7-8----7---------------------------|
B----7-8-10-8-7-------10------7-8-10-8-7---8-10-7-8--|
G--9------------9-----------9------------9-----------|
D----------------------------------------------------|
A----------------------------------------------------|
E----------------------------------------------------|

1:46
e----------------------------------------------|
B------------------------------8-7-------------|
G-7b---7-9--7b---7-9--7b---7-9-----7-7~---7-9--|
D----9---------9---------9--------------9------|
A----------------------------------------------|
E----------------------------------------------|

2:42
e-----------------------------------------|
B--------------------8-7---7-8-10-10b-10--|
G-7b---7-9--7b---7-9-----9----------------|
D----9---------9--------------------------|
A-----------------------------------------|
E-----------------------------------------|

2:55
e----------------------------------------------------10----------|
B--10-10----10-10----10----12~~---10-10----10--10-------13-12~~--|
G--------12-------12----12--------------12--------12-------------|
D----------------------------------------------------------------|
A----------------------------------------------------------------|
E----------------------------------------------------------------|

4:57
e-------------------------------------12-10----12-10----------------|
B--9-10-12----9-10-12-10-9----9-10-12-------12-------12-10-12p10p9--|
G----------9---------------9----------------------------------------|
D-------------------------------------------------------------------|
A-------------------------------------------------------------------|
E-------------------------------------------------------------------|

6:30
e--------------------------------------------------|
B--------------------------------------------------|
G------4-----5-4---4--------------4-----5-4--------|
D--5-7---7-5-----7---5-5-7-7--5-7---7-5-----5-7-7--|
A--------------------------------------------------|
E--------------------------------------------------|

e--------------------------------------------------|
B--------------------------------------------------|
G------4-----5-4---4--------------------4----------|
D--5-7---7-5-----7---5-5-7-7--5-7-7-5-7---7-5-7-7--|
A--------------------------------------------------|
E--------------------------------------------------|

7:49
e-----------------7-------------------------------7--------------7-------|
B---------10-8-10---10-8-10-8-7-----------10-8-10---10-8-10-9-10---10-9--|
G--\9-7-9-----------------------9~--\9-7-9-------------------------------|
D------------------------------------------------------------------------|
A------------------------------------------------------------------------|
E------------------------------------------------------------------------|

8:21
e------------------------------------------------------------------|
B--------12-10-9----------------10-------12-10-9--------12-10-9----|
G--9-9-9---------9--9-9-9-11-12----9-9-9---------9--9-9---------9--|
D------------------------------------------------------------------|
A------------------------------------------------------------------|
E------------------------------------------------------------------|

9:39
e-----------------------------------------7------------|
B----7-8-----------7-8-10-7-7-7-7-7--8-10---8-8-8-8-8--|
G--9-----9-9-9-9-9-------------------------------------|
D------------------------------------------------------|
A------------------------------------------------------|
E------------------------------------------------------|

e-----7-8-10-8-7-8-7----7------------------------------------------------|
B--10----------------10---10-8-----7-8-----------7-8-10-7-7-7-7-7--------|
G--------------------------------9-----9-9-9-9-9------------------9-7-9--|
D------------------------------------------------------------------------|
A------------------------------------------------------------------------|
E------------------------------------------------------------------------|

10:05
e--7-7-7-8-10-8-7----------------7-8-7---------7-7-7-8-10-8-7------7-8-7--|
B-----------------8-10--10-10-10-------10-8-------------------8-10--------|
G-------------------------------------------9-----------------------------|
D-------------------------------------------------------------------------|
A-------------------------------------------------------------------------|
E-------------------------------------------------------------------------|

e--7-7-7-8-10-8-7----------------7-8-7---------7-7-7-8-10-8-7-------------|
B-----------------8-10--10-10-10-------10-8-------------------8-10-8-7----|
G-------------------------------------------9--------------------------9--|
D-------------------------------------------------------------------------|
A-------------------------------------------------------------------------|
E-------------------------------------------------------------------------|

11:26
e--7-8-10-8-7---------7-7-7-8-7----7-8-10-8-7-------------7--|
B-------------10-8-10-----------8-------------10-10--8-10----|
G------------------------------------------------------------|
D------------------------------------------------------------|
A------------------------------------------------------------|
E------------------------------------------------------------|

e--7-8-10-8-7---------7-7-7-8-7----7-8-10-8-7-----------------|
B-------------10-8-10-----------8-------------10-10-10-8-7----|
G----------------------------------------------------------9--|
D-------------------------------------------------------------|
A-------------------------------------------------------------|
E-------------------------------------------------------------|

12:00
e-----------------------------------------------|
B-----------------------------------------------|
G-------------7-9-7-9-------------7-9-7---------|
D---------7-9-----------------7-9-------9-7-----|
A--7-7-10--------------7-7-10---------------10--|
E-----------------------------------------------|            
Submit corrections


        The Red And The Black  lessons Hard to play? Try these video lessons and learn fast The Red And The Black  lessons
        
↑ Back to top | Tablatures and chords for acoustic guitar and electric guitar, ukulele, drums are parodies/interpretations of the original songs. You may use it for private study, scholarship, research or language learning purposes only