» » »

Iron Maiden - Purgatory Bass

Artists:  A B C D E F G H I J K L M N O P Q R S T U V W X Y Z # 

Purgatory Bass

(ver. 1) Click to play this song!
Iron Maiden
 Rating:
3.9/5 (21 vote)

 Purgatory lessons Tabs too difficult? Try these video lessons and learn fast
 
                          Intro                                                         
     S    W                   H.           E  E     E  H.           E   
G||----|-------------------|---------------------|---------------------|
D||----|-------------------|------------------7--|--9---------------7--|
A||----|-------------------|---------------------|---------------------|
E||----|-------------------|---------------------|---------------------|


                        Riff A                             
  W                     S      S S E  S Q    S S S S E     
-------------------||------------------------------------||
--9----------------||*--7h-----9-9-9--9-9----7-7-9-7----*||
-------------------||*-------------------------------9--*||
-------------------||------------------------------------||


  S  S S E  S Q    S S S S E     S  S S E  S Q    S S S S E   
------------------------------|------------------------------|
--5h-7-7-7--7-7----5-5-7-5----|--7h-9-9-9--9-9----7-7-9-7----|
---------------------------7--|---------------------------9--|
------------------------------|------------------------------|


  Verso Riff 1                                                          
  S            S S E  S Q    S S S S E     S  S S E  S Q    S S S S E   
----------------------------------------|------------------------------|
--7h-----------9-9-9--9-9----7-7-9-7----|--7h-9-9-9--9-9----7-7-9-7----|
-------------------------------------9--|---------------------------9--|
----------------------------------------|------------------------------|


  S  S S E  S Q    S S S S E     S S S S S S S S E.  E.  E   
------------------------------|-----------------------------|
--5h-7-7-7--7-7----5-5-7-5----|--7-9-9-9-9-9-9-9------------|
---------------------------7--|------------------9---7---5--|
------------------------------|-----------------------------|


  S S S S S S S S E.  E.  E     S S S S S S S S E.  E.  E   
-----------------------------|-----------------------------|
--7-9-9-9-9-9-9-9------------|--7-9-9-9-9-9-9-9------------|
------------------9---7---5--|------------------9---7---5--|
-----------------------------|-----------------------------|


  S S S S S S S S E.  E.  E     S  S S E  S Q    S S S S E   
-----------------------------|------------------------------|
--7-9-9-9-9-9-9-9------------|--7h-9-9-9--9-9----7-7-9-7----|
------------------9---7---5--|---------------------------9--|
-----------------------------|------------------------------|


  S  S S E  S Q    S S S S E     S  S S E  S Q    S S S S E   
------------------------------|------------------------------|
--7h-9-9-9--9-9----7-7-9-7----|--5h-7-7-7--7-7----5-5-7-5----|
---------------------------9--|---------------------------7--|
------------------------------|------------------------------|


  S  S S E  S Q    S S S S E     S  S S E  S Q    S S S S E   
------------------------------|------------------------------|
--7h-9-9-9--9-9----7-7-9-7----|--7h-9-9-9--9-9----7-7-9-7----|
---------------------------9--|---------------------------9--|
------------------------------|------------------------------|


  S  S S E  S Q    S S S S E     S  S S E  S Q    S S S S E   
------------------------------|------------------------------|
--7h-9-9-9--9-9----7-7-9-7----|--5h-7-7-7--7-7----5-5-7-5----|
---------------------------9--|---------------------------7--|
------------------------------|------------------------------|


  S S S S S S S S E.  E.  E     S S S S S S S S E.  E.  E   
-----------------------------|-----------------------------|
--7-9-9-9-9-9-9-9------------|--7-9-9-9-9-9-9-9------------|
------------------9---7---5--|------------------9---7---5--|
-----------------------------|-----------------------------|


  S S S S S S S S E.  E.  E     S S S S S S S S E.  E.  E   
-----------------------------|-----------------------------|
--7-9-9-9-9-9-9-9------------|--7-9-9-9-9-9-9-9------------|
------------------9---7---5--|------------------9---7---5--|
-----------------------------|-----------------------------|


  Verso Riff 2                                                      
  E            S E  S E  E  S E  S E     E  S E  S E  E  S E  S E   
--------------------------------------|----------------------------|
--------------------------------------|----------------------------|
--5------------5-5--5-5--5--5-5--5-5--|--1--1-1--1-1--3--3-3--3-3--|
--------------------------------------|----------------------------|


  E  S E  S E  E  S E  S E     E  S E  S E  E  S E  S E   
----------------------------|----------------------------|
----------------------------|----------------------------|
--5--5-5--5-5--5--5-5--5-5--|--1--1-1--1-1--3--3-3--3-3--|
----------------------------|----------------------------|


  E  S E  S E  E  S E  S E     E  S E  S E  E  S E  S E   
----------------------------|-------3--------------------|
--------------------7--5----|-----3----3-----------------|
--5--5-5--5-5--5--5------8--|--1---------1--3--3-3--3-3--|
----------------------------|----------------------------|


  E  S E  S E  E  S E  S E     E  S E  S E  E  S E  S E   
----------------------------|----------------------------|
----------------------------|----------------------------|
--5--5-5--5-5--5--5-5--5-5--|--1--1-1--1-1--3--3-3--3-3--|
----------------------------|----------------------------|


  Solo Dave Murray                                                          
  S                S S E  S Q    S S S S E     S  S S E  S Q    S S S S E   
--------------------------------------------|------------------------------|
--7h---------------9-9-9--9-9----7-7-9-7----|--7h-9-9-9--9-9----7-7-9-7----|
-----------------------------------------9--|---------------------------9--|
--------------------------------------------|------------------------------|


  S  S S E  S Q    S S S S E     S  S S E  S Q    S S S S E   
------------------------------|------------------------------|
--5h-7-7-7--7-7----5-5-7-5----|--7h-9-9-9--9-9----7-7-9-7----|
---------------------------7--|---------------------------9--|
------------------------------|------------------------------|


  S  S S E  S Q    S S S S E     S  S S E  S Q    S S S S E   
------------------------------|------------------------------|
--7h-9-9-9--9-9----7-7-9-7----|--7h-9-9-9--9-9----7-7-9-7----|
---------------------------9--|---------------------------9--|
------------------------------|------------------------------|


  S  S S E  S Q    S S S S E     S S S S S S S S E.  E.  E   
------------------------------|-----------------------------|
--5h-7-7-7--7-7----5-5-7-5----|--7-9-9-9-9-9-9-9------------|
---------------------------7--|------------------9---7---5--|
------------------------------|-----------------------------|


  S S S S S S S S E.  E.  E     S S S S S S S S E.  E.  E   
-----------------------------|-----------------------------|
--7-9-9-9-9-9-9-9------------|--7-9-9-9-9-9-9-9------------|
------------------9---7---5--|------------------9---7---5--|
-----------------------------|-----------------------------|


  S S S S S S S S E.  E.  E     E  S E  S E  E  S E  S E   
-----------------------------|----------------------------|
--7-9-9-9-9-9-9-9------------|----------------------------|
------------------9---7---5--|--3--3-3--3-3--3--3-3--3-3--|
-----------------------------|----------------------------|


  Puente                                                      
  E      S E  S E  E  S E  S E     E  S E  S E  E  S E  S E   
--------------------------------|----------------------------|
--------------2-3----------2-3--|----------------------------|
--5------5-5-------5--5-5-------|--1--1-1--3-5--1--1-1--3-5--|
--------------------------------|----------------------------|


  E  S E  S E  E  S E  S E     E.  S  S  S S S S  S S  S S S  S S  
----------------------------|------5h-7p-5------------------------|
------------2------------2--|--7-----------7-5-7p-5------5--------|
--3--3-3--5----3--3-3--5----|-----------------------8p-7---8p-7-5-|
----------------------------|-------------------------------------|


  Coro A                                                      
  E      S E  S E  E  S E  S E     E  S E  S E  E  S E  S E   
--------------------------------|----------------------------|
--------------2-3----------2-3--|----------------------------|
--5------5-5-------5--5-5-------|--1--1-1--3-5--1--1-1--3-5--|
--------------------------------|----------------------------|


  E  S E  S E  E  S E  S E     S S S S  S S  S S  S  S  S  S  S  S  S  S  
----------------------------|--------------------------------------------|
------------2------------2--|--------------------------------------------|
--3--3-3--5----3--3-3--5----|--8-7-8-7-10-8-10-8-12-10-12-10-13-12-13-12-|
----------------------------|--------------------------------------------|


  E  S E  S E  E  S E  S E     E  S E  S E  E  S E  S E   
----------------------------|----------------------------|
----------2-3----------2-3--|----------------------------|
--5--5-5-------5--5-5-------|--1--1-1--3-5--1--1-1--3-5--|
----------------------------|----------------------------|


  E  S E  S E  E  S E  S E     E  S E  S E  E  E  E  S S  
----------------------------|----------------------------|
------------2------------2--|---------------7--5--3------|
--3--3-3--5----3--3-3--5----|--5--5-5--5-5---------------|
----------------------------|------------------------5-8-|


  E  S E  S E  E  S E  S E     E  S E  S E  E  S E  S E   
----------------------------|----------------------------|
----------2-3----------2-3--|----------------------------|
--5--5-5-------5--5-5-------|--1--1-1--3-5--1--1-1--3-5--|
----------------------------|----------------------------|


                                                   Intro Riff        
  E  S E  S E  E  S E  S E     W                   W                 
----------------------------|-------------------|-------------------|
------------2------------2--|--7----------------|-------------------|
--3--3-3--5----3--3-3--5----|--5----------------|-------------------|
----------------------------|-------------------|-------------------|


  W                   S S S S S S S S S S S S S S S S  
-------------------|----------------------------------|
-------------------|--9-9-9-9-9-9-9-9-9-9-9-9-9-9-9-9-|
-------------------|----------------------------------|
-------------------|----------------------------------|


                                     Riff A                             
  S S S S S S S S S S S S E  E       S      S S E  S Q    S S S S E     
--------------------------------||------------------------------------||
--9-9-9-9-9-9-9-9-9-9-9-9-9--7--||*--7h-----9-9-9--9-9----7-7-9-7----*||
--------------------------------||*-------------------------------9--*||
--------------------------------||------------------------------------||


  S  S S E  S Q    S S S S E     S  S S E  S Q    S S S S E   
------------------------------|------------------------------|
--5h-7-7-7--7-7----5-5-7-5----|--7h-9-9-9--9-9----7-7-9-7----|
---------------------------7--|---------------------------9--|
------------------------------|------------------------------|


  Verso Riff 1                                                          
  S            S S E  S Q    S S S S E     S  S S E  S Q    S S S S E   
----------------------------------------|------------------------------|
--7h-----------9-9-9--9-9----7-7-9-7----|--7h-9-9-9--9-9----7-7-9-7----|
-------------------------------------9--|---------------------------9--|
----------------------------------------|------------------------------|


  S  S S E  S Q    S S S S E     S S S S S S S S E.  E.  E   
------------------------------|-----------------------------|
--5h-7-7-7--7-7----5-5-7-5----|--7-9-9-9-9-9-9-9------------|
---------------------------7--|------------------9---7---5--|
------------------------------|-----------------------------|


  S S S S S S S S E.  E.  E     S S S S S S S S E.  E.  E   
-----------------------------|-----------------------------|
--7-9-9-9-9-9-9-9------------|--7-9-9-9-9-9-9-9------------|
------------------9---7---5--|------------------9---7---5--|
-----------------------------|-----------------------------|


  S S S S S S S S E.  E.  E     S  S S E  S Q    S S S S E   
-----------------------------|------------------------------|
--7-9-9-9-9-9-9-9------------|--7h-9-9-9--9-9----7-7-9-7----|
------------------9---7---5--|---------------------------9--|
-----------------------------|------------------------------|


  S  S S E  S Q    S S S S E     S  S S E  S Q    S S S S E   
------------------------------|------------------------------|
--7h-9-9-9--9-9----7-7-9-7----|--5h-7-7-7--7-7----5-5-7-5----|
---------------------------9--|---------------------------7--|
------------------------------|------------------------------|


  S  S S E  S Q    S S S S E     S  S S E  S Q    S S S S E   
------------------------------|------------------------------|
--7h-9-9-9--9-9----7-7-9-7----|--7h-9-9-9--9-9----7-7-9-7----|
---------------------------9--|---------------------------9--|
------------------------------|------------------------------|


  S  S S E  S Q    S S S S E     S  S S E  S Q    S S S S E   
------------------------------|------------------------------|
--7h-9-9-9--9-9----7-7-9-7----|--5h-7-7-7--7-7----5-5-7-5----|
---------------------------9--|---------------------------7--|
------------------------------|------------------------------|


  S S S S S S S S E.  E.  E     S S S S S S S S E.  E.  E   
-----------------------------|-----------------------------|
--7-9-9-9-9-9-9-9------------|--7-9-9-9-9-9-9-9------------|
------------------9---7---5--|------------------9---7---5--|
-----------------------------|-----------------------------|


  S S S S S S S S E.  E.  E     S S S S S S S S E.  E.  E   
-----------------------------|-----------------------------|
--7-9-9-9-9-9-9-9------------|--7-9-9-9-9-9-9-9------------|
------------------9---7---5--|------------------9---7---5--|
-----------------------------|-----------------------------|


  Verso Riff 2                                                      
  E            S E  S E  E  S E  S E     E  S E  S E  E  S E  S E   
--------------------------------------|----------------------------|
--------------------------------------|----------------------------|
--5------------5-5--5-5--5--5-5--5-5--|--1--1-1--1-1--3--3-3--3-3--|
--------------------------------------|----------------------------|


  E  S E  S E  E  S E  S E     E  S E  S E  E  S E  S E   
----------------------------|----------------------------|
----------------------------|----------------------------|
--5--5-5--5-5--5--5-5--5-5--|--1--1-1--1-1--3--3-3--3-3--|
----------------------------|----------------------------|


  E  S E  S E  E  S E  S E     E  S E  S E  E  S E  S E   
----------------------------|-------3--------------------|
--------------------7--5----|-----3----3-----------------|
--5--5-5--5-5--5--5------8--|--1---------1--3--3-3--3-3--|
----------------------------|----------------------------|


  E  S E  S E  E  S E  S E     E  S E  S E  E  S E  S E   
----------------------------|----------------------------|
----------------------------|----------------------------|
--5--5-5--5-5--5--5-5--5-5--|--1--1-1--1-1--3--3-3--3-3--|
----------------------------|----------------------------|


  Puente                                                      
  E      S E  S E  E  S E  S E     E  S E  S E  E  S E  S E   
--------------------------------|----------------------------|
--------------2-3----------2-3--|----------------------------|
--5------5-5-------5--5-5-------|--1--1-1--3-5--1--1-1--3-5--|
--------------------------------|----------------------------|


  E  S E  S E  E  S E  S E     E.  S  S  S S S S  S S  S S S  S S  
----------------------------|------5h-7p-5------------------------|
------------2------------2--|--7-----------7-5-7p-5------5--------|
--3--3-3--5----3--3-3--5----|-----------------------8p-7---8p-7-5-|
----------------------------|-------------------------------------|


  Coro B                                                      
  E      S E  S E  E  S E  S E     E  S E  S E  E  S E  S E   
--------------------------------|----------------------------|
--------------2-3----------2-3--|----------------------------|
--5------5-5-------5--5-5-------|--1--1-1--3-5--1--1-1--3-5--|
--------------------------------|----------------------------|


  E  S E  S E  E  S E  S E     S S S S  S S  S S  S  S  S  S  S  S  S  S  
----------------------------|--------------------------------------------|
------------2------------2--|--------------------------------------------|
--3--3-3--5----3--3-3--5----|--8-7-8-7-10-8-10-8-12-10-12-10-13-12-13-12-|
----------------------------|--------------------------------------------|


  E  S E  S E  E  S E  S E     E  S E  S E  E  S E  S E   
----------------------------|----------------------------|
----------2-3----------2-3--|----------------------------|
--5--5-5-------5--5-5-------|--1--1-1--3-5--1--1-1--3-5--|
----------------------------|----------------------------|


  E  S E  S E  E  S E  S E     E  S E  S E   E  E  Q     
----------------------------|---------------11--9--7----|
------------2------------2--|---------------------------|
--3--3-3--5----3--3-3--5----|--5--5-5--5-5--------------|
----------------------------|---------------------------|


  E  S E  S E  E  S E  S E     E  S E  S E  E  S E  S E   
--7--7-7--5----7--7-7--5----|----------------------------|
------------8------------8--|--8--8-8--7-5--8--8-8--7-5--|
----------------------------|----------------------------|
----------------------------|----------------------------|


                                     Outro                      
   E   S  E  S E   E   S  E  S E     Q     Q    E  S S S S S S  
----------------------------------|--7-----7----7--7-7-7-7-7-7-|
--10--10-10--8-7--10--10-10--8-7--|--7-------------------------|
----------------------------------|--5-------------------------|
----------------------------------|----------------------------|


  S S S S S S S S S S S S S S E     E  E  E  E  E  E  E  E   
--7-5---7-5---7-5---7-5---7-5----|--------------------------|
------7-----7-----7-----7-----7--|--7--7--7--7--5--5--5--5--|
---------------------------------|--------------------------|
---------------------------------|--------------------------|


  E  E  E  E  E  E  E  E     E  E  E  E  E  E  E  E     E  E  H        Q       
--------------------------|--------------------------|-----------------7\----||
--------------------------|--------------------------|-----------------7\----||
--8--8--8--8--7--7--7--7--|--5--5--5--5--5--5--5--5--|--5--5--5--------5\----||
--------------------------|--------------------------|-----------------------||            
Submit corrections


        Purgatory lessons Hard to play? Try these video lessons and learn fast Purgatory lessons
        
↑ Back to top | Tablatures and chords for acoustic guitar and electric guitar, ukulele, drums are parodies/interpretations of the original songs. You may use it for private study, scholarship, research or language learning purposes only