» » »

Interpol - Stella Was A Diver And She Was Always Down Tabs

Artists:  A B C D E F G H I J K L M N O P Q R S T U V W X Y Z # 

Stella Was A Diver And She Was Always Down Tabs

(ver. 2) Click to play this song!
Interpol
 Rating:
4/5 (4 votes)

 Stella Was A Diver And She Was Always Down lessons Tabs too difficult? Try these video lessons and learn fast
 
                tuning: standard

this is my version of Stella, this is how i play it. listen to the song
for timing. i based this tab on a live version.

VERSE

guitar 1
[-------------------------------------------]
[-5-5-5-5-5-5-5555-1-1-1-1-1-1-1-1-1-1-1-1--]
[-5-5-5-5-5-5-5555-2-2-2-2-2-2-2-2-2-2-2-2--]
[-3-3-3-3-3-3-3333-0-0-0-0-3-3-3-3-3-3-3-3--]
[-------------------------------------------]
[-------------------------------------------]

guitar 2
[-------5--------5-------5--------5------]
[---6-6---6--6-6--6--5-5---5--5-5---5----]
[----------------------------------------]
[----------------------------------------]
[----------------------------------------]
[----------------------------------------]


PRE-CHORUS

guitar 1
[--------------------------------------------------------------------------------]
[-------------------------------------------------------1-1-1-1-1----------------]
[--2-2-2-2--2-2-2------------------------2-2-2-2--------2-2-2-2-2----------------]
[--3-3-3-3--2-2-2--3-3-3-3-3-------------3-3-3-3-2-2-2--2-2-2-2-2----------------]
[--3-3-3-3---------3-3-3-3-3-------------3-3-3-3-2-2-2---------------------------]
[------------------1-1-1-1-1-----------------------------------------------------]

guitar 2
[---------------------------------------------------------5-5-5-5-5--------------]
[--6-6-6-6-5-5-5-5-1-1-1-1-1-------------6-6-6-6-5-5-5-5--6-6-6-6-6--------------]
[--5-5-5-5-5-5-5-5-2-2-2-2-2-------------5-5-5-5-5-5-5-5-------------------------]
[--------------------------------------------------------------------------------]
[--------------------------------------------------------------------------------]
[--------------------------------------------------------------------------------]


CHORUS

guitar 1
[----------------------------------------------------]
[------------------------------------1-1-1-1-1-1-1---]
[--2-2-2-2-2-2-2-2--2-2-2-2-2-2-2-2--2-2-2-2-2-2-2---]
[--0-0-0-0-0-0-0-0--2-2-2-2-2-2-2-2--2-2-2-2-2-2-2---]
[--1-1-1-1-1-1-1-1--3-3-3-3-3-3-3-3------------------]
[----------------------------------------------------]

guitar 2
[----------------------------------------------------]
[-------------------1-1-1-1----------1-1-1-1-1-1-1---]
[--2-2-2-2-2-2-2-2--2-2-2-2-2-2-2-2--2-2-2-2-2-2-2---]
[--2-2-2-2-2-2-2-2--2-2-2-2-2-2-2-2--2-2-2-2-2-2-2---]
[--3-3-3-1-1-1-1-1----------3-3-3-3------------------]
[----------------------------------------------------]


OUTRO

guitar 1
[-------]
[-------]
[---5---]
[-------]
[-------]
[-------]

guitar 2
[--------------------------------------------]
[--------------------------------------------]
[--5--7--5--7--9-9-10-9-7-7-9-7--5----7------]
[--------------------------------------------]
[--------------------------------------------]
[--------------------------------------------]
            
Submit corrections


        Stella Was A Diver And She Was Always Down lessons Hard to play? Try these video lessons and learn fast Stella Was A Diver And She Was Always Down lessons
        
↑ Back to top | Tablatures and chords for acoustic guitar and electric guitar, ukulele, drums are parodies/interpretations of the original songs. You may use it for private study, scholarship, research or language learning purposes only