» » »

Interpol - Stella Was A Diver And She Was Always Down Tabs

Artists:  A B C D E F G H I J K L M N O P Q R S T U V W X Y Z # 

Stella Was A Diver And She Was Always Down Tabs

(ver. 3) Click to play this song!
Interpol
 Rating:
4/5 (4 votes)

 Stella Was A Diver And She Was Always Down lessons Tabs too difficult? Try these video lessons and learn fast
 
                Interpol - Stella Was A Diver And She Was Always Down Guitar Tab

This one is 100% right. It just sounds awesome!
Have Fun ;D



Beginning + Verse (0:10)

e|----------------------------------------------------| 
B|:---------------------------------------------------| 
G|---------14----------14----------14----------14-----| 
D|---15-15----15----15----15----15----15-14-14----14--| 
A|:---------------------------------------------------| 4x
E|----------------------------------------------------| 

e|----------------------------------------------------| 
B|:--------13----------13----------13----------13-----| 
G|----------------------------------------------------| 
D|---15-15----15----15----15----15----15-14-14----14--| 2x
A|:---------------------------------------------------| 
E|----------------------------------------------------|

e|----------------------------------------------------| 
B|:---------------------------------------------------| 
G|---------14----------14----------14----------14-----| 
D|---15-15----15----15----15----15----15-14-14----14--| 
A|:---------------------------------------------------| 2x
E|----------------------------------------------------|

e|----------------------------------------------------| 
B|:--------13----------13----------13----------13-----| 
G|----------------------------------------------------| 
D|---15-15----15----15----15----15----15-14-14----14--| 2x
A|:---------------------------------------------------| 
E|----------------------------------------------------| 


Pre-Chorus + Chorus 1 (0:52)
       

e|----------------------------------------------------| 
B|:--13-13-13-13-13-----------------------------------| 
G|---14-14-14-14-14-----------------------------------| 2x 
D|---15-15-15-15-15----------12-12-12-14-14-14-14-14--| 
A|:---------------------------------------------------| 
E|----------------------------------------------------| 

e|--------------------------------------------------------| 
B|--------------------------------------------------------| 
G|--14-14-14-14-14----------------------------------------|  
D|--15-15-15-15-15----------12-12-12-14-14-14-14-14-15~~--| 
A|--------------------------------------------------------| 
E|--------------------------------------------------------| 

e|------------------------------------------------------------|
B|------------------------------------------------------------|
G|-----------5-5-5-/-9-9-9-9-9-/-10-10-10-10-/-12-12-12-12-/--|
D|------------------------------------------------------------|
A|-----------7-7-7-/-7-7-7-7-7-/-8--8--8--8--/-10-10-10-10-/--|
E|------------------------------------------------------------|
     
e|----------------|-----------------------------------------------------------------------|    
B|----------------|:---------------------------------------------------------------------:|    
G|--14-------\----|---9-9-9-9-------------------------------------10-10-10-10-\-9-9-9-9---|    
D|-----(23x)------|-----------10-10-10-10-10-10-10-10-10-10-10-10-------------------------| 3x 
A|--12-------\----|:--7-7-7-7-------------------------------------8--8--8--8--\-7-7-7-7--:|    
E|----------------|-----------7--7--7--7--8--8--8--8--8--8--8--8--------------------------|    

|-------------------------|
|-------------------------|
|--10-10-10-10-\-9-9-9-9--|
|-------------------------| 1x
|--8--8--8--8--\-7-7-7-7--|
|-------------------------|
	     ^
	     |

Don't forget the slide!
  

Chorus 2 (1:40)

"She broke away, broke away" 

e|---------------------------------------------------| 
B|---------------------------------------------------| 
G|---------------------------------------------------| 
D|--7-7-7-7-7-7-7-7-7-7-7-7-7-7-7-7-7-7-7-7-7-7-7-7--|  
A|--5-5-5-5-5-5-5-5-8-8-8-8-8-8-8-8-5-5-5-5-5-5-5-5--| 
E|--6-6-6-6-6-6-6-6----------------------------------|

e|-------------------------------------------------------------------| 
B|-------------------------------------------------------------------| 
G|-------------------------------------------------------------------| 
D|--7-7-7-7-7-7-7-7-7-7-7-7-7-7-7-7-7-7-7-7-7-7-7-7-7-7-7-7-7-7-7-7--|  
A|--5-5-5-5-5-5-5-5-8-8-8-8-8-8-8-8-5-5-5-5-5-5-5-5-5-5-5-5-5-5-5-5--| 
E|--6-6-6-6-6-6-6-6--------------------------------------------------|

e|---------------------------------------------------| 
B|---------------------------------------------------| 
G|---------------------------------------------------| 
D|--7-7-7-7-7-7-7-7-7-7-7-7-7-7-7-7-7-7-7-7-7-7-7-7--|  
A|--5-5-5-5-5-5-5-5-8-8-8-8-8-8-8-8-5-5-5-5-5-5-5-5--| 
E|--6-6-6-6-6-6-6-6----------------------------------|

e|-----------------------------------| 
B|-----------------------------------| 
G|-----------------------------------| 
D|--7-7-7-7-7-7-7-7-7-7-7-7-7-7-7-7--| 
A|--5-5-5-5-5-5-5-5-8-8-8-8-8-8-8-8--| 
E|--6-6-6-6-6-6-6-6------------------| 



Verse (2:06)

e|----------------------------------------------------| \ 
B|:---------------------------------------------------|  | 
G|---------14----------14----------14----------14-----|  |  
D|---15-15----15----15----15----15----15-14-14----14--|  | 
A|:---------------------------------------------------|  |  
E|----------------------------------------------------|  |  
							 | 3x
e|----------------------------------------------------|  | 
B|--------13----------13----------13----------13-----:|  |
G|----------------------------------------------------|  |  
D|--15-15----15----15----15----15----15-14-14----14---|  |  
A|---------------------------------------------------:|  | 
E|----------------------------------------------------| /


Pre-Chorus + Chorus 1 (2:58)

e|----------------------------------------------------| 
B|:--13-13-13-13-13-----------------------------------| 
G|---14-14-14-14-14-----------------------------------| 2x 
D|---15-15-15-15-15----------12-12-12-14-14-14-14-14--| 
A|:---------------------------------------------------| 
E|----------------------------------------------------| 

e|--------------------------------------------------------| 
B|--------------------------------------------------------| 
G|--14-14-14-14-14----------------------------------------|  
D|--15-15-15-15-15----------12-12-12-14-14-14-14-14-15~~--| 
A|--------------------------------------------------------| 
E|--------------------------------------------------------| 

e|------------------------------------------------------------|
B|------------------------------------------------------------|
G|-----------5-5-5-/-9-9-9-9-9-/-10-10-10-10-/-12-12-12-12-/--|
D|------------------------------------------------------------|
A|-----------7-7-7-/-7-7-7-7-7-/-8--8--8--8--/-10-10-10-10-/--|
E|------------------------------------------------------------|
     						   
e|----------------|-----------------------------------------------------------------------|    
B|----------------|:---------------------------------------------------------------------:|    
G|--14-------\----|---9-9-9-9-------------------------------------10-10-10-10-\-9-9-9-9---|    
D|-----(23x)------|-----------10-10-10-10-10-10-10-10-10-10-10-10-------------------------| 3x 
A|--12-------\----|:--7-7-7-7-------------------------------------8--8--8--8--\-7-7-7-7--:|    
E|----------------|-----------7--7--7--7--8--8--8--8--8--8--8--8--------------------------|    

|-------------------------|
|-------------------------|
|--10-10-10-10-\-9-9-9-9--|
|-------------------------| 1x
|--8--8--8--8--\-7-7-7-7--|
|-------------------------|

Chorus 2
"She broke away, broke away" (3:46)

e|---------------------------------------------------| 
B|---------------------------------------------------| 
G|---------------------------------------------------| 
D|--7-7-7-7-7-7-7-7-7-7-7-7-7-7-7-7-7-7-7-7-7-7-7-7--|  
A|--5-5-5-5-5-5-5-5-8-8-8-8-8-8-8-8-5-5-5-5-5-5-5-5--| 
E|--6-6-6-6-6-6-6-6----------------------------------|

e|-------------------------------------------------------------------| 
B|-------------------------------------------------------------------| 
G|-------------------------------------------------------------------| 
D|--7-7-7-7-7-7-7-7-7-7-7-7-7-7-7-7-7-7-7-7-7-7-7-7-7-7-7-7-7-7-7-7--|  
A|--5-5-5-5-5-5-5-5-8-8-8-8-8-8-8-8-5-5-5-5-5-5-5-5-5-5-5-5-5-5-5-5--| 
E|--6-6-6-6-6-6-6-6--------------------------------------------------|

e|---------------------------------------------------| 
B|---------------------------------------------------| 
G|---------------------------------------------------| 
D|--7-7-7-7-7-7-7-7-7-7-7-7-7-7-7-7-7-7-7-7-7-7-7-7--|  
A|--5-5-5-5-5-5-5-5-8-8-8-8-8-8-8-8-5-5-5-5-5-5-5-5--| 
E|--6-6-6-6-6-6-6-6----------------------------------|

e|----------------------------------------------------| 
B|----------------------------------------------------| 
G|----------------------------------------------------| 
D|--7-7-7-7-7-7-7-7-7-7-7-7-7-7-7-7-7-7-7-7-7-7-7-7---| 
A|--5-5-5-5-5-5-5-5-8-8-8-8-8-8-8-8-8-8-8-8-8-8-8-8---| 
E|--6-6-6-6-6-6-6-6-----------------------------------|  
 

Outro (4:14)

e|--------------------------------------------| 
B|:------------------------------------------:| 
G|---5--7--5-7--9--9-9-9--7-7-7-7-5~~~-7~~~---| 
D|--------------------------------------------| 14x 
A|:------------------------------------------:| 
E|--------------------------------------------| 

e|------------------------------------------------| 
B|:------------------------------------6~~~-6~~~--| 
G|---5--7--5-7--9--9-9-9--7-7-7-7-5~~~------7~~~--| 
D|------------------------------------------------| 
A|:-----------------------------------------------| 
E|------------------------------------------------|



Legend:

       	    / = slide up
       
       	    \ = slide down

   	|:--:|= section to repeat   


The End 
            
Submit corrections


        Stella Was A Diver And She Was Always Down lessons Hard to play? Try these video lessons and learn fast Stella Was A Diver And She Was Always Down lessons
        
↑ Back to top | Tablatures and chords for acoustic guitar and electric guitar, ukulele, drums are parodies/interpretations of the original songs. You may use it for private study, scholarship, research or language learning purposes only