» » »

Interpol - Stella Tabs

Artists:  A B C D E F G H I J K L M N O P Q R S T U V W X Y Z # 

Stella Tabs

(ver. 1) Click to play this song!
Interpol
 Rating:
4/5 (4 votes)

 Stella lessons Tabs too difficult? Try these video lessons and learn fast
 
                Username: okregisterme

/// - strum continuously or in rhythm
x - muted string
(x)X(x) - 1st number indicates number of preceding staffs to repeat,
          2nd number indicates number of repeats;
          when placed at the end of two staffs tied together,
          repeat both staffs
. - sound note/chord then dampen immediately
\ - slide down
(fret number) - sound the note by sliding into it, don't pick
% - rest

  intro/verse

1--------------------------------------------------------------
2-10------------------------------10--------------10-----------
3-9-------------------------------x---------------9------------
4-10------------------------------10--------------10-----------
5-8--///--------------------------x---------------0--///-------
6---------------------------------10-///-----------------------  1X1

  guitar 1

1--------------------------------------------------------------
2-10------------------------------10--------------10-----------
3-9-------------------------------x---------------9------------
4-10------------------------------10--------------10-----------
5-8--///--------------------------x---------------0--///-------
6---------------------------------10-///-----------------------
|
| guitar 2
|
1--------------------------------------------------------------
2---------10--------------10--------------10------------10-----
3-10--10------10--10--10------10--10--10------10--9--9------9--
4--------------------------------------------------------------
5--------------------------------------------------------------
6--------------------------------------------------------------  1X3

  guitar 1

1--------------------------------------------------------------
2-10------------------------------10--------------10-----------
3-9-------------------------------x---------------9------------
4-10------------------------------10--------------10-----------
5-8--///--------------------------x---------------0--///-------
6---------------------------------10-///-----------------------
|
| guitar 2
|
1---------8---------------8---------------8-------------8------
2--------------------------------------------------------------
3-10--10------10--10--10------10--10--10------10--9--9------9--
4--------------------------------------------------------------
5--------------------------------------------------------------
6--------------------------------------------------------------  1X1

  guitar 1

1--------------------------------------------------------------
2-10------------------------------10--------------10-----------
3-9-------------------------------x---------------9------------
4-10------------------------------10--------------10-----------
5-8--///--------------------------x---------------0--///-------
6---------------------------------10-///-----------------------
|
| guitar 2
|
1--------------------------------------------------------------
2---------10--------------10--------------10------------10-----
3-10--10------10--10--10------10--10--10------10--9--9------9--
4--------------------------------------------------------------
5--------------------------------------------------------------
6--------------------------------------------------------------  1X1

  guitar 1

1--------------------------------------------------------------
2-10------------------------------10--------------10-----------
3-9-------------------------------x---------------9------------
4-10------------------------------10--------------10-----------
5-8--///--------------------------x---------------0--///-------
6---------------------------------10-///-----------------------
|
| guitar 2
|
1---------8---------------8---------------8-------------8------
2--------------------------------------------------------------
3-10--10------10--10--10------10--10--10------10--9--9------9--
4--------------------------------------------------------------
5--------------------------------------------------------------
6--------------------------------------------------------------  1X1

  guitar 1

                  .
1---------------------------------------------------------
2-10--10--10--10--10------10--10--10--10--10--10--10--10--
3-9---9---9---9---9-------x---x---x---x---9---9---9---9---
4-10--10--10--10--10------10--10--10--10--10--10--10--10--
5-8---8---8---8---8-------x---x---x---x---0---0---0---0---
6-------------------------10--10--10--10------------------
|
| guitar 2
|
1------------------------------------------------------
2-13--13--13--13--13-----------------------------------
3-10--10--10--10--10-----\-7--7--7--/(9)---9--9--9--9--
4------------------------------------------------------
5------------------------------------------------------
6------------------------------------------------------  1X2

  guitar 1

1----------------------------------------------------------
2-10-------------------------------------------------------
3-9--------------------------------------------------------
4-10-------------------------------------------------------
5-8--///---------------------------------------------------
6----------------------------------------------------------
|
| guitar 2
|
1----------------------------------------------------------
2----------------------------------------------------------
3-10-------------------------------------------------------
4----------------------------------------------------------
5----------------------------------------------------------
6----------------------------------------------------------

  guitar 1

1----------------------------------------------------------
2-10-------------------------------------------------------
3-9--------------------------------------------------------
4-10-------------------------------------------------------
5-8--///---------------------------------------------------
6----------------------------------------------------------
|
| guitar 2
|
1----------------------------------------------------------
2----------------------------------------------------------
3-7--7--7/(9)--9--9--9--9--10--10--10--10--12--12--12--12--
4----------------------------------------------------------
5----------------------------------------------------------
6----------------------------------------------------------

  pre-chorus

  guitar 1

1--------------7--7--5--5--------------------------------------------------
2--5--5--6--6--6--6--6--6--6--6--6--6--6--6--6--6--5--6--6--5--6--6--5--5--
3--5--5--5--5--5--5--5--5--5--5--5--5--5--5--5--5--5--5--5--5--5--5--5--5--
4--7--7--7--7--7--7--7--7--------------------------------------------------
5--------------------------------------------------------------------------
6--------------------------------------------------------------------------
|
| guitar 2
|
1-------------------------------------------------------------------------
2-------------------------------------------------------------------------
3-14-///------------------------------------------------------------------
4-------------------------------------------------------------------------
5-------------------------------------------------------------------------
6-------------------------------------------------------------------------

  guitar 1

1-------------7--7--5--5--------------------------------------------------
2-5--5--6--6--6--6--6--6--6--6--6--6--6--6--6--6--5--6--6--5--6--6--5--5--
3-5--5--5--5--5--5--5--5--5--5--5--5--5--5--5--5--5--5--5--5--5--5--5--5--
4-7--7--7--7--7--7--7--7--------------------------------------------------
5-------------------------------------------------------------------------
6-------------------------------------------------------------------------
|
| guitar 2
|
1-------------------------------------------------------------------------
2-5--5--5--5--5--5--5--5--5--5--5--5--5--5--5--5--6--6--6--5--5--5--5--5--
3-2--2--2--4--4--4--4--4--5--5--5--5--5--5--5--5--5--5--5--5--5--5--5--5--
4-------------------------------------------------------------------------
5-------------------------------------------------------------------------
6-------------------------------------------------------------------------  1X1

  guitar 1

1-------------7--7--5--5--------------------------
2-5--5--6--6--6--6--6--6--6--6--6--6--6--6--6--6--
3-5--5--5--5--5--5--5--5--5--5--5--5--5--5--5--5--
4-7--7--7--7--7--7--7--7--------------------------
5-------------------------------------------------
6-------------------------------------------------
|
| guitar 2
|
1-------------------------------------------------
2-5--5--5--5--5--5--5--5--5--5--5--5--5--5--5--5--
3-2--2--2--4--4--4--4--4--5--5--5--5--5--5--5--5--
4-------------------------------------------------
5-------------------------------------------------
6-------------------------------------------------

  guitar 1

1-5--5--5--5--5--5--5--5--5--5--5--5--5--5--5--5--
2-5--5--5--5--5--5--5--5--5--5--5--5--5--5--5--5--
3-5--5--5--5--5--5--5--5--5--5--5--5--5--5--5--5--
4-0--0--0--0--0--0--0--0--0--0--0--0--0--0--0--0--
5-------------------------------------------------
6-------------------------------------------------
|
| guitar 2
|
1-------------------------------------------------
2-6--6--6--5--5--5--5--6--6--6--6--5--5--5--5--5--
3-5--5--5--5--5--5--5--5--5--5--5--5--5--5--5--5--
4-------------------------------------------------
5-------------------------------------------------
6-------------------------------------------------

  chorus - play this bar four times:
           on the 1st repeat, play the last chord twice as long,
           on the last repeat, play the last chord only once

1-------------------------------------------------------------------------
2-------------------------------------------------------------------------
3-------------------------------------------------7--7--7--7--7--7--7--7--
4-7--7--7--7--7--7--7--7--7--7--7--7--7--7--7--7--7--7--7--7--7--7--7--7--
5-5--5--5--5--5--5--5--5--8--8--8--8--8--8--8--8--5--5--5--5--5--5--5--5--
6-6--6--6--6--6--6--6--6--6--6--6--6--6--6--6--6--------------------------

  2nd verse - same parts, listen for order and repeats 

  2nd pre-chorus - same

  2nd chorus - same as first, but on the last repeat,
               play this:

1-------------------------------------------------------------------------
2-------------------------------------------------------------------------
3-------------------------------------------------------------------------
4-7--7--7--7--7--7--7--7--7--7--7--7--7--7--7--7--7--7--7--7--7--7--7--7--
5-5--5--5--5--5--5--5--5--8--8--8--8--8--8--8--8--8--8--8--8--8--8--8--8--
6-6--6--6--6--6--6--6--6--6--6--6--6--6--6--6--6--6--6--6--6--6--6--6--6--

  outro - use these parts, listen for repeats

  listen for this fill, use chorus (?) effect

1-----
2-10--
3-9---
4-10--
5-8---
6-----

  guitar 1

1-------------------------------------------------------------------
2-------------------------------------------------------------------
3-7-----------------------------------------------------------------
4-7-----------------------------------------------------------------
5-5-----------------------------------------------------------------
6-------------------------------------------------------------------
|
| guitar 2
|
1-------------------------------------------------------------------
2-------------------------------------------------------------------
3-5---7---5---7-----9---9---10--9--7--7--7--7--5-----7--------------
4-------------------------------------------------------------------
5-------------------------------------------------------------------
6-------------------------------------------------------------------

  guitar 1

  .        .        .        .        .        .        .        .
1-5--------5--------5--------5--------5--------5--------8--------8--
2-6--------6--------6--------6--------8--------8--------6--------6--
3-7--------7--------7--------7--------7--------7--------7--------7--
4-------------------------------------------------------------------
5-------------------------------------------------------------------
6-------------------------------------------------------------------
|
| guitar 2
|
1-------------------------------------------------------------------
2-------------------------------------------------------------------
3-5---7---5---7-----7---7---10--9--7--7--7--7--5-----7--------------
4-------------------------------------------------------------------
5-------------------------------------------------------------------
6-------------------------------------------------------------------

  last time

  guitar 1

  .        .        .        .        .        .        .        .
1-5--------5--------5--------5--------5--------5--------8--------8--
2-6--------6--------6--------6--------8--------8--------6--------6--
3-7--------7--------7--------7--------7--------7--------7--------7--
4-------------------------------------------------------------------
5-------------------------------------------------------------------
6-------------------------------------------------------------------
|
| guitar 2
|
1-------------------------------------------------------------------
2-------------------------------------------------------------------
3-5---7---5---7-----7---7---10--9--7--7--7--7--5-----10-------------
4-------------------------------------------------------------------
5-------------------------------------------------------------------
6-------------------------------------------------------------------

  end on

  guitar 1

1-5--
2-6--
3-7--
4----
5----
6----
|
| guitar 2
|
1----
2----
3-7--
4----
5----
6----
            
Submit corrections


        Stella lessons Hard to play? Try these video lessons and learn fast Stella lessons
        
↑ Back to top | Tablatures and chords for acoustic guitar and electric guitar, ukulele, drums are parodies/interpretations of the original songs. You may use it for private study, scholarship, research or language learning purposes only