» » »

Interpol - Stella Tabs

Artists:  A B C D E F G H I J K L M N O P Q R S T U V W X Y Z # 

Stella Tabs

(ver. 2) Click to play this song!
Interpol
 Rating:
4/5 (4 votes)

 Stella lessons Tabs too difficult? Try these video lessons and learn fast
 
                guit 1 

--5--//----5--//----5--//---------------------------- 
--5--//----5--//----5--//---------------------------- 
--5--//----5--//----5--//---------------------------- 
--7--//----7--//----7--//---------------------------- 
--8--//----5--//----0--//---------------------------- 
----------------------------------------------------- 

"...game"         "he      he      he" *3      "he he he" 
--5--/-/-/-/------5--//----5--//----5--///-------5--//----- 
--5--/-/-/-/------5--//----5--//----5--///-------5--//----- 
--5--/-/-/-/------5--//----5--//----5--///-------5--//----- 
--7--/-/-/-/------7--//----7--//----7--///-------7--//----- 
--8--/-/-/-/------5--//----0--//----5--///-------5--//----- 
----------------------------------------------------------- 

"she was alright" 
----------7-7-5-5---------------------------------------- 
--5-5-6-6-6-6-6-6-6-6-6-6-6-6-6-6-6-6-6--6-6-6-6-6------- 
--5-5-5-5-5-5-5-5-5-5-5-5-5-5-5-5-5-5-5--5-5-5-5-5------- *4 
--7-7-7-7-7-7-7-7-7-7-7-7-7-7-7-7-7-7-7--7-7-7-7-7------- 
--------------------------------------------------------- 
--------------------------------------------------------- 

--5-5-5-5-5-5-5-5----- 
--5-5-5-5-5-5-5-5----- 
--5-5-5-5-5-5-5-5----- 
--7-7-7-7-7-7-7-7----- 
---------------------- 
---------------------- 

"she broke away, broke away" 
---------------------------- 
---------------------------- 
---------------------------- 
--7--//---7--//---7--//----- *4 
--5--//---5--//---8--//----- 
----------6----------------- 

1st time: don't play 1st chord 
3rd time: play twice 1st chord 

verse 
chorus 
bridge 

----------------------------------------------------- 
--5---5---5---5---5---5---5---5---------------------- 
--7---7---7---7---7---7---7---7---------------------- 
----------------------------------------------------- 
----------------------------------------------------- 
----------------------------------------------------- 
until the end 

guit 1: 

----------------------------------------------------- 
----------------------------------------------------- 
--------14----------14----------14-----------14------ 
--15-15----15-15-15----15-15-15----15-144-14----14--- 
----------------------------------------------------- 
----------------------------------------------------- 

----------------------------------------------------- 
--------13----------13----------13-----------13------ 
----------------------------------------------------- 
--15-15----15-15-15----15-15-15----15-144-14----14--- 
----------------------------------------------------- 
----------------------------------------------------- 
      slide down 
--13-13-13-13-13------------------------------------- 
--13-13-13-13-13------------------------------------- 
--14-14-14-14-14------------------------------------- *3 
--15-15-15-15-15-----------12-12-12-14-114-14-14-14-- 
----------------------------------------------------- 
----------------------------------------------------- 

----------------------------------------------------- 
----------------------------------------------------- 
---------7--9--10-12--14-//-------------------------- 
--15------------------------------------------------- 
---------5--7--8--10--12-//-------------------------- 
----------------------------------------------------- 


---10-10-10-12-12-12-12-12-13-13-13-13-113-13-13-13-13-13-13-13-13-13-13-13--- 
---9--9--9--9--9--9--9--9--9--9--9--9--99--9--9--9--10-10-10-9--9--9--9--9---- 
---7--7--7--9--9--9--9--9--10-10-10-10-110-10-10-10-10-10-10-10-10-10-10-10--- 

"yeah, it's right" 
----------------------------- 
---13-13-13-13-13-13-13-13--- 
---10-10-10-9--9--9--9--9---- 
---10-10-10-10-10-10-10-10--- 
----------------------------- 
----------------------------- 

"she broke away, broke away" 
---------------------------- 
---------------------------- 
---------------------------- 
--7--//---7--//---7--//----- *4 
--5--//---5--//---8--//----- 
----------6----------------- 

1st time: don't play 1st chord 
3rd time: play twice 1st chord 

verse 
chorus 

----------------------------------------------------- 
----------------------------------------------------- 
---5--7---5--7---9--9-9-9-7-7-7-7-5----77------------ 
----------------------------------------------------- 
----------------------------------------------------- 
----------------------------------------------------- 

until the end 

last time: 
----------------------------------------------------- 
---------------------------------------66-----6------ 
---5--7---5--7---9--9-9-9-7-7-7-7-5-----------7------ 
----------------------------------------------------- 
----------------------------------------------------- 
-----------------------------------------------------
            
Submit corrections


        Stella lessons Hard to play? Try these video lessons and learn fast Stella lessons
        
↑ Back to top | Tablatures and chords for acoustic guitar and electric guitar, ukulele, drums are parodies/interpretations of the original songs. You may use it for private study, scholarship, research or language learning purposes only