» » »

Interpol - Nyc Tabs

Artists:  A B C D E F G H I J K L M N O P Q R S T U V W X Y Z # 

Nyc Tabs

(ver. 3) Click to play this song!
Interpol
 Rating:
4.8/5 (21 vote)

 Nyc lessons Tabs too difficult? Try these video lessons and learn fast
 
                intro:
0:00

E|--------------|--------------|--------------|--------------
B|--1--1--1--1--|--1--1--1--1--|--1--1--1--1--|--1--1--1--1--
G|--2--2--2--2--|--2--2--2--2--|--2--2--2--0--|--0--0--0--2--
D|--3--3--3--3--|--3--3--3--3--|--3--3--3--3--|--2--2--2--0--  X2   (For this part ONLY, strum the strings
A|--3--3--3--3--|--3--3--3--3--|--3--3--3--3--|--3--3--3--3--        near the bridge for a dry, crisp sound)
E|--------------|--------------|--------------|--------------


0:14

E|--------0--0--|--0--0--0--0--|--0--0--0--0--|--0--0--0--0--
B|--------1--1--|--1--1--1--1--|--1--1--1--1--|--1--1--1--1--
G|--2--2--2--2--|--2--2--2--2--|--2--2--2--0--|--0--0--0--2--
D|--3--3--3--3--|--3--3--3--3--|--3--3--3--3--|--2--2--2--0--
A|--3--3--3--3--|--3--3--3--3--|--3--3--3--3--|--3--3--3--3--
E|--1--1--1--1--|--1--1--1--1--|--1--1--1--1--|--------------

E|--0--0--0--0--|--0--0--0--0--|--0--0--0--0--|--0--0--0--0--
B|--1--1--1--1--|--1--1--1--1--|--1--1--1--1--|--1--1--1--1--
G|--2--2--2--2--|--2--2--2--2--|--2--2--2--0--|--0--0--0--2-- 
D|--3--3--3--3--|--3--3--3--3--|--3--3--3--3--|--2--2--2--0--
A|--3--3--3--3--|--3--3--3--3--|--3--3--3--3--|--3--3--3--3--
E|--1--1--1--1--|--1--1--1--1--|--1--1--1--1--|--------------



0:28
'I had seven faces'....

E|--0--0--0--0--|--0--0--0--0--|--0--0--0--0--|--0--0--0--0--
B|--1--1--1--1--|--1--1--1--1--|--1--1--1--1--|--1--1--1--1--
G|--2--2--2--2--|--2--2--2--2--|--2--2--2--0--|--0--0--0--2--  X8
D|--3--3--3--3--|--3--3--3--3--|--3--3--3--3--|--2--2--2--0--
A|--3--3--3--3--|--3--3--3--3--|--3--3--3--3--|--3--3--3--3--
E|--1--1--1--1--|--1--1--1--1--|--1--1--1--1--|--------------


1:19
'(Got to be some more change in my life...)'    'New York cares....'

E|--1--1--1--1--|--1--1--1--1--|--1--1--1--1--|--3--3--3--3--
B|--1--1--1--1--|--1--1--1--1--|--1--1--1--1--|--1--1--1--1--
G|--2--2--2--2--|--2--2--2--2--|--2--2--2--2--|--0--0--0--0--  X4
D|--3--3--3--3--|--3--3--3--3--|--3--3--3--3--|--2--2--2--2--
A|--3--3--3--3--|--3--3--3--3--|--3--3--3--3--|--3--3--3--3--
E|--1--1--1--1--|--1--1--1--1--|--1--1--1--1--|--------------


1:44
'subway she is a...'
E|--------------|--------------|--------------|--------------
B|--1--1--1--1--|--1--1--1--1--|--1--1--1--1--|--1--1--1--1--
G|--2--2--2--2--|--2--2--2--2--|--2--2--2--0--|--0--0--0--2--  X2
D|--3--3--3--3--|--3--3--3--3--|--3--3--3--3--|--2--2--2--0--
A|--3--3--3--3--|--3--3--3--3--|--3--3--3--3--|--3--3--3--3--
E|--------------|--------------|--------------|--------------


2:08

E|--0--0--0--0--|--0--0--0--0--|--0--0--0--0--|--0--0--0--0--
B|--1--1--1--1--|--1--1--1--1--|--1--1--1--1--|--1--1--1--1--
G|--2--2--2--2--|--2--2--2--2--|--2--2--2--0--|--0--0--0--2--  Repeat until ending sequence
D|--3--3--3--3--|--3--3--3--3--|--3--3--3--3--|--2--2--2--0--
A|--3--3--3--3--|--3--3--3--3--|--3--3--3--3--|--3--3--3--3--
E|--1--1--1--1--|--1--1--1--1--|--1--1--1--1--|--------------


Ending sequence
3:46

E|--------------|--------------|--------------|--------------
B|--1--1--1--1--|--1--1--1--1--|--1--1--1--1--|--1--1--1--1--
G|--2--2--2--2--|--3--3--3--2--|--2--2--2--2--|--2--2--2--2--  X4
D|--3--3--3--3--|--3--3--3--3--|--3--3--3--3--|--3--3--3--3--
A|--------------|--------------|--------------|--3--3--3--3--  <<<(use little finger for this note)
E|--------------|--------------|--------------|--------------


4:11

E|--------
B|--1~ ~ ~
G|--2~ ~ ~    let final chord ring out
D|--3~ ~ ~
A|--x-----
E|--1~ ~ ~            
Submit corrections


        Nyc lessons Hard to play? Try these video lessons and learn fast Nyc lessons
        
↑ Back to top | Tablatures and chords for acoustic guitar and electric guitar, ukulele, drums are parodies/interpretations of the original songs. You may use it for private study, scholarship, research or language learning purposes only