Home » I » Interpol »

Interpol - Nyc Bass

Artists:  A B C D E F G H I J K L M N O P Q R S T U V W X Y Z # 

Nyc Bass

(ver. 2) Click to play this song!
Interpol
 Rating:
4/5 (4 votes)
                
Tuning: normal e,a,d,g tuning for this one

DO NOT use a plectrum for this fantastic song because it sounds so much better using your fingers!!


(come in after guitar intro)          (only pluck these notes lightley)
G|--------------------------------------------------------------------------|
D|--------------------------------------------------------------------------|
A|-8---8---8---8-----------8---8---8---8------------------------------------|
E|-----------------8---8-------------------8---8----------------------------|

heres an alternative for the main verse

G|--------------------------------------------------------------------------|
D|--------------------------------------------------------------------------|
A|-888888888888-----888888888888-----888888888888---------------------------|
E|-------------8---8------------8---8------------8---8----------------------|

(cause new york is.....)

G|---------------------------------------------------------------------------|
D|---------------------------------------------------------------------------|
A|-8/121212-15-151515-12-101010-8--------------------------------------------|
E|-------------------------------8--8----------------------------------------|

repeat this untill chorus finishes

now wait untill drums kick in for next bit
G|-----------------------------------|
D|-----------------------------------|
A|-----------------------------------|
E|-44444444444-444444444444444/8888--|

im not sure if it is the 2nd third or forth fret for the above bit but either one sounds 
(always slide up to 8th fet though)

repeat chorus again

now it goes

G|--------------------------------------------------------------------------|
D|--------------------------------------------------------------------------|
A|-888888888888----888888888888--------------end on--8----------------------|
E|-------------8888------------8888-----------------------------------------|


| /  slide up
| \  slide down
| h  hammer-on
| p  pull-off
| ~  vibrato
| +  harmonic
| x  Mute note
===============================================================================
            
Submit corrections

↑ Back to top | Tablatures and chords for acoustic guitar and electric guitar, ukulele, drums are parodies/interpretations of the original songs. You may use it for private study, scholarship, research or language learning purposes only