» » »

Interpol - Heinrich Maneuver Tabs

Artists:  A B C D E F G H I J K L M N O P Q R S T U V W X Y Z # 

Heinrich Maneuver Tabs

(ver. 3) Click to play this song!
Interpol
 Rating:
4/5 (13 votes)

 Heinrich Maneuver lessons Tabs too difficult? Try these video lessons and learn fast
 
                ----------------------------------------------------------------------------
                             The Heinrich Maneuver
                                    Interpol
----------------------------------------------------------------------------
     Okay, So I tabbed this song for both guitars, each with there own section. For the
part, this song is accurate. Theres just little things that you might have to play
with to get the song to sound right. Occasionally, there's strange effects coming out of 
right speaker that I can't seem to hear, so this is as close as I can get it. Brace yourselves..

     7/17/07: Updated Rhythm Guitar, Pre Chorus on Lead Guitar
     8/21/07: Sorry for the delay. Re tabbed almost the entire song. Hopefully this is more accurate. 


Tuning:Standard
=============================LEAD GUITAR===================================


   |Verse|
e|-----------------------|-----------------------|-------------------------|
B|-----------------------|-----------------------|-------------------------|
G|-----------------------|-----------------------|-------------------------|
D|-----------------------|-----------------------|-------------------------|
A|-----2-2-2-------0-0-0-|------2-2-2-------0-0-0|-------2-2-2-------2-2-2-|
E|-3-3-------3-3-3-------|3-3-3-------3-3-3------|-0-0-0-------0-0-0-------|

e|--------------------------------|
B|--------------------------------|
G|--------------------------------|
D|--------------------------------|
A|----------------0-0-0-0-0-0-0-0-|
E|3-3-3-3-3-3-3-3-----------------|

 (Repeat first part of Verse 2x, then end with second part.)
 
 |PreChorus|
e|-----------------|
B|-----------------|
G|-----------------|
D|-----------------| [Repeat this 2x times]
A|-7-5-7-5-7-5-3-2-|
E|-----------------|

  [Then this]
e|--------------------------------|
B|--------------------------------|
G|--------------------------------|
D|--------------------------------|
A|----------------0-0-0-0-0-0-0-0-|
E|3-3-3-3-3-3-3-3-----------------|

 [Repeat that small section again]

e|-------------------------------|
B|-------------------------------|
G|-------------------------------|
D|-------------------------------|[Repeat this 4x]
A|---2-2---2-2---2---2---2-2-2---|
E|-0-----0-----0---0---0-------0-|

     |Chorus|
e|-----------------------------------------------------|
B|-----------------------------------------------------|
G|-----------------------------------------------------|
D|-----------------------------------------------------| [Repeat 2x]
A|-3-3-3-3-3-3-2-0-0-0-0-0-0--------------0-0-0-0-0-0--|
E|--------------------------0-0-0-0-0-2-3--------------|

e|---------------------------------|
B|---------------------------------|
G|---------------------------------|
D|---------------------------------|
A|-----2-2----0-0-----2-2-----0-0--|
E|-0-0-----3-3----0-0-----3-3------|

      |Verse|
e|----------------------------3-3-3-2--|
B|-------------------------------------|
G|-------------------------------------|
D|-------------------------------------|
A|-----0-0x-----0-0x---2-2-------------|
E|-3-3------3-3------------0-0---------|

[Repeat Pre-Chorus, Then Chorus]


e|-------------------------------------------------------------------------|
B|-------------------------10-10-----10-10-----12-12-----12-12-----12-12---|
G|-9-9-12-12-9-9-12-12-9-9-------9-9-------9-9-------9-9-------9-9---------|
D|-------------------------------------------------------------------------|
A|-------------------------------------------------------------------------|
E|-------------------------------------------------------------------------|


                               [Repeat this till end]
e|-------------------|
B|-------------------|
G|-------------------|
D|-12\11------14-----|
A|-12\11------14-----|
E|-10\-9------12-----|


===============================RHYTHM GUITAR================================
                          ______________________________
   |Verse|                |Strum this softly for  awhile|
e|------------------------|------------------|
B|-12-12-12-12/17-17-17-17|------------------|
G|------------------------|------------------|
D|------------------------|9999999999999999--|
A|------------------------|9999999999999999--|
E|------------------------|7777777777777777--|


     |Pre Chorus , Repeat Twice|

  [Repeat 3x]                        [Repeat 6x]
e|-------------------------|----------------------|
B|-12-12-12-12/17-17-17-17-|12x-12-12-12-12-12-12-|
G|-------------------------|----------------------|
D|-------------------------|----------------------|
A|-------------------------|----------------------|
E|-------------------------|----------------------|


      |Chorus|

e|------------|
B|-12~-17~-8~-|
G|-12~-17~-9~-|
D|------------|
A|------------|
E|------------|

       |Verse|
 [Strum this softly again for a while]
e|-------------------------|
B|-------------------------|
G|-------------------------|
D|-1717171717171717--------|
A|-1717171717171717--------|
E|-1515151515151515--------|


[Repeat Pre Chorus]
[Repeat Chorus]

 [Repeat a few times] [Repeat for a while]
e|------------------|----------------------|
B|------------------|----------------------|
G|--4-4-4-4-5-------|-4-4-4-4-4-5-5-4-5-4--|
D|------------------|----------------------|
A|------------------|----------------------|
E|------------------|----------------------|

   |End With|
e|---------------------|
B|---------------------|
G|-4-4-4-4-5-5-4-5-4---|
D|---------------------|
A|---------------------|
E|---------------------|


| /  slide up
| \  slide down
| h  hammer-on
| p  pull-off
| ~  vibrato
| +  harmonic
| x  Mute note
===============================================================================
            
Submit corrections


        Heinrich Maneuver lessons Hard to play? Try these video lessons and learn fast Heinrich Maneuver lessons
        
↑ Back to top | Tablatures and chords for acoustic guitar and electric guitar, ukulele, drums are parodies/interpretations of the original songs. You may use it for private study, scholarship, research or language learning purposes only