Home » I » Interpol »

Interpol - Heinrich Maneuver Bass

Artists:  A B C D E F G H I J K L M N O P Q R S T U V W X Y Z # 

Heinrich Maneuver Bass

(ver. 1) Click to play this song!
Interpol
 Rating:
4/5 (4 votes)
                

Tuning: normal

Verse - Bass in at 0.12

G|---------------------------------------------------------------------------|
D|---------------------------------------------------------------------------|
A|----------------5-5-------------5-5-6-7---2-2-2---------0-0-0-------2-2-2--|
E|---3-3-3-3-3-3------5-5-5-5-5-5------------------3-3-3--------3-3-3--------|

G|-------------------------------------------------------------------------|
D|-------------------------------------------------------------------------|
A|--------0-0-0--------2-2-2-------2-2-2---------2-2-2-------0-0-0---------|
E|--3-3-3--------0-0-0-------0-0-0---------3-3-3-------3-3-3--------3-3-3--|

G|-------------------------------------------------------------------------|
D|-------------------------------------------------------------------------|
A|--2-2-2-------0-0-0-------2-2-2-------2-2-2-2-2-2------------------------|
E|--------3-3-3-------0-0-0-------0-0-0------------------------------------|

Pre Chorus 0.37

G|--------------------------------------------------------7-8-9------------|
D|--------------------------------------------------------------9-8-7------| 
A|---------------5-5-------------5-5-6-7-7-7-7-7----7-7-7------------------|x2
E|--3-3-3-3-3-3------5-5-5-5-5-5-----------------7-------------------------|



0.51

G|-------------------------------------------------------------------------|
D|-------------------------------------------------------------------------|
A|-------------------------------------------------------------------------|x2
E|-0-0-3-3-0-0-3-3-0-0-5-5-0-0-5-5-0-0-7-7-0-0-7-7-0-0-8-8-0-0-8-----------|

Chorus 1.04

G|-------------------------------------------------------------------------|
D|-------------------------------------------------------------------------|
A|-------------------------------------------------------------------------|
E|---8-8-8-8-8-7-7-5-5-5-5-5-3-2-0-0-0-0-0-2-3-3-3-3-3---------------------|


G|-------------------------------------------------------------------------|
D|-------------------------------------------------------------------------|
A|-------------------------------------------------------------------------|
E|---8-8-8-8-8-7-7-5-5-5-3-3-1-1-0-0---------------------------------------|

1.17

G|-------------------------------------------------------------------------|
D|-------------------------------------------------------------------------|
A|-------------------------------------------------------------------------|
E|--0-0---0-0---0-0--------------------------------------------------------|
       123   123
Repeat whole tab until 2.27 (album version)
G|-------------------------------------------------------------------------|
D|-10-10-10-10-10-9-9-7-7-7-7-7-5-4------------4-5-------------------------|
A|-----------------------------------7-7-7-7-7-----------------------------|x2
E|-------------------------------------------------------------------------|

2.41
G|-------------------------------------------------------------------------|
D|-------------------------------------------------------------------------|
A|-------------------------------------------------------------------------|
E|--8-8-8-8-8-7-5-5-5-5-5-7-8-12-12-12-12\-8-8-8-8-8-----------------------|

G|-------------------------------------------------------------------------|
D|-------------------------------------------------------------------------|
A|-------------------------------------------------------------------------|
E|--8-8-8-8-8-7-5-5-5-5-5-3-2-0-0-0-0-0-2-3-3-3-3-3--0h2h3-----------------|

G|-------------------------------------------------------------------------|
D|-------------------------------------------------------------------------|
A|-------------------------------------------------------------------------|
E|--8-8-8-8-8-8-8-5-5-5-5-5-5-5-0-0-0-0-0-0-0-3-3-3-3-3-3-3----------------|

Repeat last part til end


| /  slide up
| \  slide down
| h  hammer-on
| p  pull-off
| ~  vibrato
| +  harmonic
| x  Mute note
===============================================================================
            
Submit corrections

↑ Back to top | Tablatures and chords for acoustic guitar and electric guitar, ukulele, drums are parodies/interpretations of the original songs. You may use it for private study, scholarship, research or language learning purposes only