Home » I » Incubus »

Incubus - Stellar Bass

Artists:  A B C D E F G H I J K L M N O P Q R S T U V W X Y Z # 

Stellar Bass

(ver. 2) Click to play this song!
Incubus

r= rest

Verse
G|-------|
D|-------|
A|-------|
E|-55-99-|

Prechorus
G|-----------------|
D|-----------------|
A|-----------------|
E|-10(x8)/77777777-|

Chorus
G|-----------------|
D|-----------------|
A|------44---------|
E|-5555----44-00-4-|

Interlude after 1st chorus
G|---------------|-------------------|---------------|-------------|
D|-----7-7-7-----|-------------------|-----7-7-7-----|-------------|
A|----7-7-7-7----|-------------------|----7-7-7-7----|-------------|
E|-55---------5\-|-000-5-7h8p7-2h3p2-|-55---------5\-|-000-5-7h8p7-|

2nd Verse, play verse riff twice then
G|--------|
D|--------|
A|-r-5----|
E|----4-5-|

Interlude after 2nd Chorus
G|----------------|-------|
D|*--------------*|-------|
A|*--------------*|-------|
E|-5==5p4p3==0==3-|-33333-|
            
Submit corrections

↑ Back to top | Tablatures and chords for acoustic guitar and electric guitar, ukulele, drums are parodies/interpretations of the original songs. You may use it for private study, scholarship, research or language learning purposes only