Home » I » Incubus »

Incubus - Stellar Tabs

Artists:  A B C D E F G H I J K L M N O P Q R S T U V W X Y Z # 

Stellar Tabs

(ver. 11) Click to play this song!
Incubus
[Verse]
e|---0-0-0--0---0--|------------------|---0-0-0--0---0--|------------------|
B|---0-0-0--0---0--|------------------|---0-0-0--0---0--|------------------|
G|---9-9/11-11b-6b-|------------------|---9-9/11-11b-6b-|------------------| x3
D|---9-9/11-11b-6b-|-6------6-6---6-7-|---9-9/11-11b-6b-|-6------6-6-----6-|
A|-0---------------|----4-4-----5-----|-0---------------|----4-4-----7-7---|
E|-----------------|------------------|-----------------|------------------|

e|---0-0-0--0---0--|------------------|
B|---0-0-0--0---0--|------------------|
G|---9-9/11-11b-6b-|------------------|
D|---9-9/11-11b-6b-|-6------6-6---6-7-|
A|-0---------------|----4-4-----5-----|
E|-----------------|------------------|

e|-5--5--5-5--5-|-5--5--5--5-5-5-5-|-2-2-2--2-2--2-|-2--2-2--2-2-2-2-|
B|-5--5--5-5--5-|-5--5--5--5-5-5-5-|-2-2-2--2-2--2-|-2--2-2--2-2-2-2-|
G|-7--7--7-7--7-|-7--7--7--7-7-7-7-|-4-4-4--4-4--4-|-4--4-4--4-4-4-4-|
D|-7--7--7-7--7-|-7--7--7--7-7-7-7-|-4-4-4--4-4--4-|-4--4-4--4-4-4-4-|
A|-5--5--5-5--5-|-5--5--5--5-5-5-5-|-2-2-2--2-2--2-|-2--2-2--2-2-2-2-|
E|-5--5--5-5--5-|-5--5--5--5-5-5-5-|-2-2-2--2-2--2-|-2--2-2--2-2-2-2-|


[Chorus]
e|---0-0---0-0-|---------------|---0-0---0-0-|---------------|
B|---0-0---0-0-|---------------|---0-0---0-0-|---------------|
G|-2-2-2-2-2-2-|---------------|-2-2-2-2-2-2-|---------------| x2
D|-2-2-2-2-2-2-|-----6-6-----6-|-2-2-2-2-2-2-|-----6-6---6-7-|
A|-0-0-0-0-0-0-|-4-4-----7-7---|-0-0-0-0-0-0-|-4-4-----5-----|
E|-0-0-0-0-0-0-|---------------|-0-0-0-0-0-0-|---------------|


[Bridge]
e|---0-0-0--0---|----------|---0-0-0-0--|----------|
B|---0-0-0--0---|----------|---0-0-0-0--|----------|
G|---9-9/11-11~-|----------|---9-9\6-6~-|----------| x2
D|---9-9/11-11~-|----------|---9-9\6-6~-|----------|
A|-0------------|----------|-0----------|----------|
E|--------------|----------|------------|----------|


[Verse]
e|---0-0-0--0---0--|-----------------|---0-0-0--0---0--|-----------------|    
B|---0-0-0--0---0--|-----------------|---0-0-0--0---0--|-----------------|
G|---9-9/11-11b-6b-|-----------------|---9-9/11-11b-6b-|-----------------| x4
D|---9-9/11-11b-6b-|-6-----6-6-----6-|---9-9/11-11b-6b-|-6-----6-6---6-7-|
A|-0---------------|---4-4-----7-7---|-0---------------|---4-4-----5-----|
E|-----------------|-----------------|-----------------|-----------------|

e|-5--5--5-5--5-|-5--5--5--5-5-5-5-|-2-2-2--2-2--2-|-2--2-2--2-2-2-2-|
B|-5--5--5-5--5-|-5--5--5--5-5-5-5-|-2-2-2--2-2--2-|-2--2-2--2-2-2-2-|
G|-7--7--7-7--7-|-7--7--7--7-7-7-7-|-4-4-4--4-4--4-|-4--4-4--4-4-4-4-|
D|-7--7--7-7--7-|-7--7--7--7-7-7-7-|-4-4-4--4-4--4-|-4--4-4--4-4-4-4-|
A|-5--5--5-5--5-|-5--5--5--5-5-5-5-|-2-2-2--2-2--2-|-2--2-2--2-2-2-2-|
E|-5--5--5-5--5-|-5--5--5--5-5-5-5-|-2-2-2--2-2--2-|-2--2-2--2-2-2-2-|


[Chorus]
e|---0-0---0-0-|---------------|---0-0---0-0-|---------------|
B|---0-0---0-0-|---------------|---0-0---0-0-|---------------|
G|-2-2-2-2-2-2-|---------------|-2-2-2-2-2-2-|---------------| x2
D|-2-2-2-2-2-2-|-----6-6-----6-|-2-2-2-2-2-2-|-----6-6---6-7-|
A|-0-0-0-0-0-0-|-4-4-----7-7---|-0-0-0-0-0-0-|-4-4-----5-----|
E|-0-0-0-0-0-0-|---------------|-0-0-0-0-0-0-|---------------|
  
e|---0-0---0-0-|---------------|---0-0---0-0-|---------------|
B|---0-0---0-0-|---------------|---0-0---0-0-|---------------|
G|-2-2-2-2-2-2-|---------------|-2-2-2-2-2-2-|---------------|
D|-2-2-2-2-2-2-|-6-6-6-6-----6-|-2-2-2-2-2-2-|-6-6-6-6---6-7-|
A|-0-0-0-0-0-0-|-4-4-6-6-0-0-6-|-0-0-0-0-0-0-|-4-4-6-6-4-4-7-|
E|-0-0-0-0-0-0-|-4-4-4-4-0-0-4-|-0-0-0-0-0-0-|-4-4-4-4-4-4-5-|


[Bridge]
e|-------------|-------------|-------------|-----------|
B|-------------|-------------|-------------|-----------|
G|-------------|-------------|-------------|-----------|
D|-----0-0-----|-----0-0-----|-----0-0-----|-----0-0---|
A|---7-----7---|---7-----7---|---5---5-----|--------5--|
E|-5---------5-|-5---------5-|-3-----3-----|---------3-|

e|-------------|-------------|---------------|----------|
B|-------------|-------------|---------0-----|-----0----|
G|-------------|-------------|-----0---0-----|------0---|
D|-----2-2-----|-----2-2-----|-------0-0-----|-------0--|
A|---2-----2---|---2-----2---|---5-----5-----|--------0-|
E|-0---------0-|-0---------0-|-3-------3-----|----------|
  
e|-------------|---------------|-------------|-----------|
B|-------------|---------------|-------------|-----------|
G|-------------|---------------|-------------|-----------|
D|-----0-0-----|-----0---0-----|-----0-0-----|-----0-0---|
A|---7-----7---|---7---7---7---|---5---5-----|--------5--|
E|-5---------5-|-5-----------5-|-3-----3-----|---------3-|

e|-------------|-------------|---------------|-------------|
B|-------------|-------------|---------0-----|-----0-0-0-0-|
G|-------------|-------------|-----0---0-----|-----0-0-0-0-|
D|-----2-2-----|-----2-2-----|-------0-0-----|-----0-0-0-0-|
A|---2-----2---|---2-----2---|---5-----5-----|-----5-5-5-5-|
E|-0---------0-|-0---------0-|-3-------3-----|-----3-3-3-3-|


[Chorus]
e|---0-0---0-0-|---------------|---0-0---0-0-|---------------|
B|---0-0---0-0-|---------------|---0-0---0-0-|---------------|
G|-2-2-2-2-2-2-|---------------|-2-2-2-2-2-2-|---------------| x2
D|-2-2-2-2-2-2-|-----6-6-----6-|-2-2-2-2-2-2-|-----6-6---6-7-|
A|-0-0-0-0-0-0-|-4-4-----7-7---|-0-0-0-0-0-0-|-4-4-----5-----|
E|-0-0-0-0-0-0-|---------------|-0-0-0-0-0-0-|---------------|
  
e|---0-0---0-0-|---------------|---0-0---0-0-|---------------|
B|---0-0---0-0-|---------------|---0-0---0-0-|---------------|
G|-2-2-2-2-2-2-|---------------|-2-2-2-2-2-2-|---------------| x2
D|-2-2-2-2-2-2-|-6-6-6-6-----6-|-2-2-2-2-2-2-|-6-6-6-6---6-7-|
A|-0-0-0-0-0-0-|-4-4-6-6-0-0-6-|-0-0-0-0-0-0-|-4-4-6-6-4-4-7-|
E|-0-0-0-0-0-0-|-4-4-4-4-0-0-4-|-0-0-0-0-0-0-|-4-4-4-4-4-4-5-|

e|---------------|---0------|
B|---------------|---0------|
G|---------------|---2------|
D|-6-6-6-6---6-7-|---2------|
A|-4-4-6-6-4-4-7-|---0------|
E|-4-4-4-4-4-4-5-|---0------|            
Submit corrections

↑ Back to top | Tablatures and chords for acoustic guitar and electric guitar, ukulele, drums are parodies/interpretations of the original songs. You may use it for private study, scholarship, research or language learning purposes only