» » »

Hillsong United - I Surrender Tabs

Artists:  A B C D E F G H I J K L M N O P Q R S T U V W X Y Z # 

I Surrender Tabs

(ver. 2) Click to play this song!
Hillsong United
 Rating:
4.3/5 (12 votes)

 I Surrender lessons Tabs too difficult? Try these video lessons and learn fast
 
                Intro


e|---------------------------------------------------------------------------|
B|------1-1--------1-1--------1-1-----0--------------------------------------|   X2
G|--2---------2----------2------------------2----0---------------------------|
D|---------------------------------------------------------------------------|
A|---------------------------------------------------------------------------|
E|---------------------------------------------------------------------------|

e|---------------------------------------------------------------------------|
B|--------1-1-----------1-1------------1-1------0----------------------------|
G|--0-------------0-------------0-------------------2----0-------------------|
D|---------------------------------------------------------------------------|
A|---------------------------------------------------------------------------|
E|---------------------------------------------------------------------------|

e|---------------------------------------------------------------------------|
B|---------1-1------------1-1---------------1-1--------0---------------------|
G|----3--------------3----------------3-------------------2-------0----------|
D|---------------------------------------------------------------------------|
A|---------------------------------------------------------------------------|
E|---------------------------------------------------------------------------|            
Submit corrections


        I Surrender lessons Hard to play? Try these video lessons and learn fast I Surrender lessons
        
↑ Back to top | Tablatures and chords for acoustic guitar and electric guitar, ukulele, drums are parodies/interpretations of the original songs. You may use it for private study, scholarship, research or language learning purposes only