» » »

Hillsong United - Came To My Rescue Bass

Artists:  A B C D E F G H I J K L M N O P Q R S T U V W X Y Z # 

Came To My Rescue Bass

(ver. 1) Click to play this song!
Hillsong United
 Rating:
4.3/5 (6 votes)

 Came To My Rescue lessons Tabs too difficult? Try these video lessons and learn fast
 
                --------------------------------------------------------------------------------------
--------------------------------------------------------------------------------------


Tuning: E A D G (Standard) 

Intro:

G|--------------------------12-12-12-12-12-12-12-12-----------------------------------|
D|--10-10-10-10-10-10-10-10-------------------------7-7-7-7-7-7-7-7\3-3-3-3-3-3-3-3---|
A|------------------------------------------------------------------------------------|
E|------------------------------------------------------------------------------------|

G|------------------------------------------------------------------------------------|
D|--/10-10-10-10-10-10-10-10-9-9-9-9-9-9-9-9-7-7-7-7-7-7-7-7\3-3-3-3-3-3-3-3----------|
A|------------------------------------------------------------------------------------|
E|------------------------------------------------------------------------------------|

Verse 1:

G|---------------------------12-12-12-12-12-12-12-12----------------------------------|
D|--/10-10-10-10-10-10-10-10-------------------------7-7-7-7-7-7-7-7\3-3-3-3-3-3-3-3--|
A|------------------------------------------------------------------------------------|
E|------------------------------------------------------------------------------------|

G|------------------------------------------------------------------------------------|
D|--/10-10-10-10-10-10-10-10-9-9-9-9-9-9-9-9-7-7-7-7-7-7-7-7\3-3-3-3-3-3-3-3----------|
A|------------------------------------------------------------------------------------|
E|------------------------------------------------------------------------------------|

Verse 2:

G|---------------------------12-12-12-12-12-12-12-12----------------------------------|
D|--/10-10-10-10-10-10-10-10-------------------------7-7-7-7-7-7-7-7\3-3-3-3-3-3-3-3--|
A|------------------------------------------------------------------------------------|
E|------------------------------------------------------------------------------------|

G|------------------------------------------------------------------------------------|
D|--/10-10-10-10-10-10-10-10-9-9-9-9-9-9-9-9-7-7-7-7-7-7-7-7\3-3-3-3-3-3-3-3----------|
A|------------------------------------------------------------------------------------|
E|------------------------------------------------------------------------------------|

Chorus 1:

G|------------------------------------------------------------------------------------|
D|--/10-------------------------------------------------------------------------------|
A|------------------------------------------------------------------------------------|
E|------------------------------------------------------------------------------------|


G|------------------------------------------------------------------------------------|
D|------------------------------------------------------------------------------------|
A|------------------------------------------------------------------------------------|
E|------------------------------------------------------------------------------------|

Instrumental:

G|--------------------------12-12-12-12-12-12-12-12-----------------------------------|
D|--10-10-10-10-10-10-10-10-------------------------7-7-7-7-7-7-7-7\3-3-3-3-3-3-3-3---|
A|------------------------------------------------------------------------------------|
E|------------------------------------------------------------------------------------|

Verse 2:

G|---------------------------12-12-12-12-12-12-12-12----------------------------------|
D|--/10-10-10-10-10-10-10-10-------------------------7-7-7-7-7-7-7-7\3-3-3-3-3-3-3-3--|
A|------------------------------------------------------------------------------------|
E|------------------------------------------------------------------------------------|

G|------------------------------------------------------------------------------------|
D|--/10-10-10-10-10-10-10-10-9-9-9-9-9-9-9-9-7-7-7-7-7-7-7-7\3-3-3-3-3-3-3-3----------|
A|------------------------------------------------------------------------------------|
E|------------------------------------------------------------------------------------|

Chorus 2:

G|------------------------------------------------------------------------------------|
D|------------------------------------------------------------------------------------|
A|--3-3-3-3-3-3-3-3-3-2-2-2-2-2-2-2-2-0-0-0-0-0-0-0-0---------------------------------|
E|----------------------------------------------------1-1-1-1-1-1-1-------------------|

G|------------------------------------------------------------------------------------|
D|------------------------------------------------------------------------------------|
A|--3-3-3-3-3-3-3-3-3-2-2-2-2-2-2-2-2-0-0-0-0-0-0-0-0---------------------------------|
E|----------------------------------------------------1-1-1-1-1-1-1-------------------|
                                         x2

Instrumental:

G|------------------------------------------------------------------------------------|
D|------------------------------------------------------------------------------------|
A|--0-0-0-0-0-0-0-0-0-0-0-0-0-0-2-2-3-3-3-3-3-3-3-3-3-3-3-3-3-3/5-5-------------------|
E|------------------------------------------------------------------------------------|

G|------------------------------------------------------------------------------------|
D|------------------------------------------------------------------------------------|
A|--0-0-0-0-0-0-0-0-0-0-0-0-----------------------------------------------------------|
E|--------------------------3-3-3-3-1-1-1-1-1-1-1-1-1-1-1-1-1-1/3-3-------------------|

Bridge:

G|------------------------------------------------------------------------------------|
D|------------------------------------------------------------------------------------|
A|--0-0-0-0-0-0-0-0-0-0-0-0-0-0-2-2-3-3-3-3-3-3-3-3-3-3-3-3-3-3/5-5-------------------|
E|------------------------------------------------------------------------------------|

G|------------------------------------------------------------------------------------|
D|------------------------------------------------------------------------------------|
A|--0-0-0-0-0-0-0-0-0-0-0-0-----------------------------------------------------------|
E|--------------------------3-3-3-3-1-1-1-1-1-1-1-1-1-1-1-1-1-1/3-3-------------------|

G|------------------------------------------------------------------------------------|
D|------7-5---------5/7-------7-5-----------------------------------------------------|
A|--0-0-----7-3-0-0-------0-0-----7-3-0-0-2-2-3---3-5-3-2-3-3-----3-3-3-5-3-2-3-3/5-5-|
E|------------------------------------------------------------3-3---------------------|

G|------------------------------------------------------------------------------------|
D|------7-5---------5/7-------7-5-----------------------------------------------------|
A|--0-0-----7-3-0-0-------0-0-----7-3-------------------------------------------------|
E|------------------------------------3-3-3-3-1-1-1-1-1-1-1-1-1-1-1-1-1-1/3-3---------|

G|------------------------------------------------------------------------------------|
D|------7-5---------5/7-------7-5-----------------------------------------------------|
A|--0-0-----7-3-0-0-------0-0-----7-3-0-0-2-2-3---3-5-3-2-3-3-----3-3-3-5-3-2-3-3/5-5-|
E|------------------------------------------------------------3-3---------------------|
                                                                      Chorus:
G|----------------------------------------------------------------------|-------------|
D|------7-5---------5/7-------7-5---------------------------------------|-/10---------|
A|--0-0-----7-3-0-0-------0-0-----7-3-----------------------------------|-------------|
E|------------------------------------3-3-3-3-1-------------------------|-------------|
            
Submit corrections


        Came To My Rescue lessons Hard to play? Try these video lessons and learn fast Came To My Rescue lessons
        
↑ Back to top | Tablatures and chords for acoustic guitar and electric guitar, ukulele, drums are parodies/interpretations of the original songs. You may use it for private study, scholarship, research or language learning purposes only