» » »

Hillsong United - I Surrender Tabs

Artists:  A B C D E F G H I J K L M N O P Q R S T U V W X Y Z # 

I Surrender Tabs

(ver. 3) Click to play this song!
Hillsong United
 Rating:
4.1/5 (31 vote)

 I Surrender lessons Tabs too difficult? Try these video lessons and learn fast
 
                [INTRO]
  Am   C   G   F

   A-minor shape
e|----------------------------------------------------|
B|--------1-----------1------------1------------------|
G|---2-----------2-----------2----------4--2---0------|
D|-----2-----------2-----------2----------------------|
A|-0----------0-----------0---------------------------|
E|----------------------------------------------------|

   C shape
e|----------------------------------------------------|
B|--------1-----------1-------------1-----------------|
G|---0-----------0-----------0------------4--2--0-----|
D|-----2-----------2------------2---------------------|
A|-3----------3-----------3---------------------------|
E|----------------------------------------------------|

   G shape 
e|----------------------------------------------------|
B|---------1------------1-----------1-----------------|
G|----0-----------0------------0----------4--2--0-----|
D|------0-----------0------------0--------------------|
A|----------------------------------------------------|
E|--3----------3------------3-------------------------|

   F shape
e|----------------------------------------------------|
B|--------1-----------1-------------1------------1----|
G|---2-----------2-----------2-------------2----------|
D|-----2-----------2------------2------------2--------|
A|-3----------3-----------3-------------3-------------|
E|----------------------------------------------------|

[Verse 1]
Am   C   G   F

   Am shape
e|----------------------------------------------------|
B|--------1-----------1-------------1------------1----|
G|---2-----------2-----------2-------------2----------|
D|-----2-----------2------------2------------2--------|
A|-0----------0-----------0------------0--------------|
E|----------------------------------------------------|

   C shape
e|----------------------------------------------------|
B|--------1-----------1-------------1------------1----|
G|---0-----------0-----------0-------------0----------|
D|-----2-----------2------------2------------2--------|
A|-3----------3-----------3-------------3-------------|
E|----------------------------------------------------|

   G shape
e|----------------------------------------------------|
B|--------3-----------3-------------3------------3----|
G|---0-----------0-----------0-------------0----------|
D|-----0-----------0------------0------------0--------|
A|----------------------------------------------------|
E|-3---------3------------3-------------3-------------|

   F shape
e|----------------------------------------------------|
B|--------1-----------1---------1---------------------|
G|---2-----------2------------------------2-----------|
D|-----2-----------2------------2---------------------|
A|-3----------3---------------------------3-----------|
E|----------------------------------------------------|

[Loop 2 of Verse](F is different)
   Am shape
e|----------------------------------------------------|
B|--------1-----------1-------------1------------1----|
G|---2-----------2-----------2-------------2----------|
D|-----2-----------2------------2------------2--------|
A|-0----------0-----------0------------0--------------|
E|----------------------------------------------------|

   C shape
e|----------------------------------------------------|
B|--------1-----------1-------------1------------1----|
G|---0-----------0-----------0-------------0----------|
D|-----2-----------2------------2------------2--------|
A|-3----------3-----------3-------------3-------------|
E|----------------------------------------------------|

   G shape
e|----------------------------------------------------|
B|--------3-----------3-------------3------------3----|
G|---0-----------0-----------0-------------0----------|
D|-----0-----------0------------0------------0--------|
A|----------------------------------------------------|
E|-3---------3------------3-------------3-------------|

   F shape
e|----------------------------------1-----------------|
B|--------1-----------1--------------------------1----|
G|---2-----------2-----------2-------------2----------|
D|-----2-----------2------------2------------2--------|
A|-3----------3-----------3-------------3-------------|
E|----------------------------------------------------|

[Chorus 1]
  Am   C   G   F
   Am shape
e|----------------------------------------------------|
B|--------1-----------1-------------1------------1----|
G|---2-----------2-----------2-------------2----------|
D|-----2-----------2------------2------------2--------|
A|-0----------0-----------0------------0--------------|
E|----------------------------------------------------|

   C shape
e|----------------------------------------------------|
B|--------1-----------1-------------1-----------------|
G|---0-----------0-----------0------------4--2--0-----|
D|-----2-----------2------------2---------------------|
A|-3----------3-----------3---------------------------|
E|----------------------------------------------------|

   G shape 
e|----------------------------------------------------|
B|---------1------------1-----------1-----------------|
G|----0-----------0------------0----------4--2--0-----|
D|------0-----------0------------0--------------------|
A|----------------------------------------------------|
E|--3----------3------------3-------------------------|

   F shape
e|----------------------------------------------------|
B|--------1-----------1-------------1------------1----|
G|---2-----------2-----------2-------------0h2--------|
D|-----2-----------2------------2---------------------|
A|-3----------3-----------3---------------------------|
E|----------------------------------------------------|

[Verse 2]
  Am   C   G   F
   Am shape
e|----------------------------------------------------|
B|--------1-----------1-------------1------------1----|
G|---2-----------2-----------2-------------2----------|
D|-----2-----------2------------2------------2--------|
A|-0----------0-----------0------------0--------------|
E|----------------------------------------------------|

   C shape
e|----------------------------------------------------|
B|--------1-----------1-------------1------------1----|
G|---0-----------0-----------0-------------0----------|
D|-----2-----------2------------2------------2--------|
A|-3----------3-----------3-------------3-------------|
E|----------------------------------------------------|

   G shape
e|----------------------------------------------------|
B|----------------------------------------------------|
G|---0----4------0---4-------0-----4--------0---4-----|
D|-----0-----------0------------0------------0--------|
A|----------------------------------------------------|
E|-3---------3------------3-------------3-------------|

   F shape
e|----------------------------------1-----------------|
B|--------1-----------1--------------------------1----|
G|---2-----------2-----------2-------------2----------|
D|-----2-----------2------------2------------2--------|
A|-3----------3-----------3-------------3-------------|
E|----------------------------------------------------|

[Loop 2 of Verse](F is different)
   Am shape
e|----------------------------------------------------|
B|--------1-----------1-------------1------------1----|
G|---2-----------2-----------2-------------2----------|
D|-----2-----------2------------2------------2--------|
A|-0----------0-----------0------------0--------------|
E|----------------------------------------------------|

   C shape
e|----------------------------------------------------|
B|--------1-----------1-------------1------------1----|
G|---0-----------0-----------0-------------0----------|
D|-----2-----------2------------2------------2--------|
A|-3----------3-----------3-------------3-------------|
E|----------------------------------------------------|

   G shape
e|----------------------------------------------------|
B|--------3-----------3-------------3------------3----|
G|---0-----------0-----------0-------------0----------|
D|-----0-----------0------------0------------0--------|
A|----------------------------------------------------|
E|-3---------3------------3-------------3-------------|

   F shape
e|------------------------------------------------|---0|
B|--------1-----------1-------------1-----------1-|----|
G|---2-----------2-----------2-------------2------|----|
D|-----2-----------2------------2------------2----|-2--|
A|-3----------3-----------3-------------3---------|----|
E|------------------------------------------------|----|

[Chorus 2]
  Am   C   Dm   F
   Am shape
e|----------------------------------------------------|
B|--------1-----------1-------------1------------1----|
G|---2-----------2-----------2-------------2----------|
D|-----2-----------2------------2------------2--------|
A|-0----------0-----------0------------0--------------|
E|----------------------------------------------------| 

   C shape
e|----------------------------------------------------|
B|--------1-----------1-------------1------------1----|
G|---0-----------0-----------0-------------0----------|
D|-----2-----------2------------2------------2--------|
A|-3----------3-----------3-------------3-------------|
E|----------------------------------------------------|

   Dm shape
e|--------1-----------1-------------1------------1----|
B|---3----------3------------3-------------3----------|
G|-----2-----------2------------2-------------2-------|
D|-0---------0------------0-------------0-------------|
A|----------------------------------------------------|
E|----------------------------------------------------|

   F shape
e|------------------------------------------------|---0|
B|--------1-----------1-----------1------------1--|----|
G|---2-----------2----------2------------2--------|----|
D|-----2-----------2-----------2-----------2------|-2--|
A|-3----------3----------3------------3-----------|----|
E|------------------------------------------------|----|

[Bridge]
   F                     C
e|----------------------------------------------------|
B|--------1-----------1-------------1------------1----|
G|---2-----------2-----------0-------------0----------|
D|-----2-----------2------------2------------2--------|
A|-3----------3-----------3-------------3-------------|
E|----------------------------------------------------|

   G                     
e|----------------------------------------------------|
B|--------0-----------0-------------0------------0----|
G|---0-----------0-----------0-------------0----------|
D|-----0-----------0------------0------------0--------|
A|----------------------------------------------------|
E|-3---------3------------3-------------3-------------| 

  Dm shape               Am
e|----------------------------------------------------|
B|----------3-----------3-------------1------------1--|
G|----2-----------2-----------2-------------2---------|
D|-0-----0-----0-----0------------2------------2------|
A|-------------------------0------------0-------------|
E|----------------------------------------------------|

   G                     
e|----------------------------------------------------|
B|--------3-----------3-------------3------------1----|
G|---0-----------0-----------0-------------0----------|
D|-----0-----------0------------0------------0--------|
A|----------------------------------------------------|
E|-3---------3------------3-------------3-------------|

[Chorus 3]
  Am   C   G   F
   Am shape
e|----------------------------------------------------|
B|--------1-----------1-------------1------------1----|
G|---2-----------2-----------2-------------2----------|
D|-----2-----------2------------2------------2--------|
A|-0----------0-----------0------------0--------------|
E|----------------------------------------------------|

   C shape
e|--------0----------0------------0-------------------|
B|-----------------------------------------------1----|
G|---0-----------0-----------0-------------0----------|
D|-----2-----------2------------2------------2--------|
A|-3----------3-----------3-------------3-------------|
E|----------------------------------------------------|

   Dm shape
e|--------1-----------1-------------1------------1----|
B|---3----------3------------3-------------3----------|
G|-----2-----------2------------2-------------2-------|
D|-0---------0------------0-------------0-------------|
A|----------------------------------------------------|
E|----------------------------------------------------|

   F shape
e|----------------------------------------------------|
B|--------1-----------1-------------1------------1----|
G|---2-----------2-----------2-------------2----------|
D|-----2-----------2------------2------------2--------|
A|-3----------3-----------3-------------3-------------|
E|----------------------------------------------------|            
Submit corrections


        I Surrender lessons Hard to play? Try these video lessons and learn fast I Surrender lessons
        
↑ Back to top | Tablatures and chords for acoustic guitar and electric guitar, ukulele, drums are parodies/interpretations of the original songs. You may use it for private study, scholarship, research or language learning purposes only