» » »

Hillsong United - Hosanna Bass

Artists:  A B C D E F G H I J K L M N O P Q R S T U V W X Y Z # 

Hosanna Bass

(ver. 1) Click to play this song!
Hillsong United
 Rating:
4/5 (4 votes)

 Hosanna lessons Tabs too difficult? Try these video lessons and learn fast
 
                -------------------------------------------------------------------------------
			     Hosanna - Hillsong United
-------------------------------------------------------------------------------


Tuning: Standard
(Just drums for two bars)
Intro:x2
G|---------------------------------------------------------------------------|
D|---------------------------------------------------------------------------|
A|4-4-4-4-4-4-4-4-7-7-7-7-7-7-7-7-9-9-9-9-9-9-9-9-11-11-11-11-11-11-11-11----|
E|---------------------------------------------------------------------------|


Verse I:
G|---------------------------------------------------------------------------|
D|---------------------------------------------------------------------------|
A|7-7-7-7-7-7-7-7-4-4-4-4-4-4-4-4-----------------2-2-2-2-2-2-2-2-4-4-4-4-4-4|
E|--------------------------------2-2-2-2-2-2-2-2----------------------------|

G|---------------------------------------------------------------------------|
D|---------------------------------------------------------------------------|
A|7-7-7-7-7-7-7-7-4-4-4-4-4-4-4-4-----------------2-2-2-2-2-2-2-2------------|
E|--------------------------------2-2-2-2-2-2-2-2----------------------------|


Silent Chorus:
G|---------------------------------------------------------------------------|
D|---------------------------------------------------------------------------|
A|2/11-12-14-16-12-16-14-11-12-14-16-12-14-----------------------------------|
E|---------------------------------------------------------------------------|


Fill I:
G|---------------------------------------------------------------------------|
D|---------------------------------------------------------------------------|
A|4-4-4-4-4-4-4-4------------------------------------------------------------|
E|---------------------------------------------------------------------------|


Verse II:
G|---------------------------------------------------------------------------|
D|---------------------------------------------------------------------------|
A|7-7-7-7-7-7-7-7-4-4-4-4-4-4-4-4-----------------2-2-2-2-2-2-2-2------------|
E|--------------------------------2-2-2-2-2-2-2-2-----------------2-2-2-2----|

G|---------------------------------------------------------------------------|
D|---------------------------------------------------------------------------|
A|----------------7-7-4-7-4-4-4-4-4-4-4-4-----------------2-2-2-2-2-2-2-2----|
E|0-0-0-0-0-0-0-0-------------------------2-2-2-2-2-2-2-2--------------------|


Chorus I:x2
G|---------------------------------------------------------------------------|
D|---------------------------------------------------------------------------|
A|--------0-0-0-0-2-2-2-2-4-4-4-4-0-0-0-0-4-4-4-4-2-2-2-2--------------------|
E|4-4-4-4--------------------------------------------------------------------|


Musical Interlude:x2
G|---------------------------------------------------------------------------|
D|---------------------------------------------------------------------------|
A|4-4-4-4-4-4-4-4-7-7-7-7-7-7-7-7--------------------------------------------|
E|--------------------------------2-2-2-2-2-2-2-2-4-4-4-4-4-4-4-4------------|


Bridge:x2
G|---------------------------------------------------------------------------|
D|---------------------------------------------------------------------------|
A|0-0-0-0-0-0-0-0-2-2-2-2-2-2-2-2-----------------4-4-4-4-4-4-4-4------------|
E|--------------------------------0-0-0-0-0-0-0-0----------------------------|

G|---------------------------------------------------------------------------|
D|---------------------------------------------------------------------------|
A|0-0-0-0-0-0-0-0-2-2-2-2-2-2-2-2-4-4-4-4-4-4-4-4----------------------------|
E|---------------------------------------------------------------------------|


Fill II:
G|---------------------------------------------------------------------------|
D|---------------------------------------------------------------------------|
A|12-------------------------------------------------------------------------|
E|---------------------------------------------------------------------------|


chorus II:
G|---------------------------------------------------------------------------|
D|---------------------------------------------------------------------------|
A|2/11-12-14-16-12-16-14-11-12-14-16-0-0-0-0-2-2-2-2-7-7-7-7-7-7-7-7-7-------|
E|---------------------------------------------------------------------------|

G|---------------------------------------------------------------------------|
D|---------------------------------------------------------------------------|
A|--------0-0-0-0-2-2-2-2-4-4-4-4-0-0-0-0-4-4-4-4-2-2-2-2--------------------|
E|4-4-4-4--------------------------------------------------------------------|

G|---------------------------------------------------------------------------|
D|---------------------------------------------------------------------------|
A|--------0-0-0-0-2-2-2-2-4-4-4-4-0-0-0-0-4-4-4-4-2-2-2-2--0-0-0-0-4-4-4-4---|
E|4-4-4-4------------------------------------------------------------------0-|

| /  slide up
| \  slide down
| h  hammer-on
| p  pull-off
| ~  vibrato
| +  harmonic
| x  Mute note
===============================================================================
            
Submit corrections


        Hosanna lessons Hard to play? Try these video lessons and learn fast Hosanna lessons
        
↑ Back to top | Tablatures and chords for acoustic guitar and electric guitar, ukulele, drums are parodies/interpretations of the original songs. You may use it for private study, scholarship, research or language learning purposes only