» » »

Hillsong United - Hosanna Tabs

Artists:  A B C D E F G H I J K L M N O P Q R S T U V W X Y Z # 

Hosanna Tabs

(ver. 3) Click to play this song!
Hillsong United
 Rating:
4/5 (4 votes)

 Hosanna lessons Tabs too difficult? Try these video lessons and learn fast
 
                INTRO:
E|-----4-------4------------------|
B|---5-----5h7---------4-------4--|
G|-6-----6-----------4-----4h6----|
D|-----------------6-----6--------|
A|--------------------------------|
e|--------------------------------|

E|--------------------------------|
B|-------5---5--------4--------4--|
G|-----6-------6----4------4h6----|
D|-6s7-----7------6------6--------|
A|--------------------------------|
e|--------------------------------|

E|-----4-------4-------------------|
B|---5-----5h7---------4-------4---|
G|-6-----6-----------4-----4h6-----|
D|-----------------6-----6---------|
A|---------------------------------|
e----------------------------------|

E|-----------7-------------9-------|
B-------5-----5------7------7------|
G|-----6------------8--------------|
D|-6s7-----7------9------9---------|
A|---------------------------------|
e|---------------------------------|


VERSE 1:

E|--------4------------------|
B|--9---5--------2--4----4---|
G|9---6--------2------4----4-|
D|-----------4----------4----|
A|---------------------------|
e|---------------------------|

E
I see the king of glory
C#m
Coming down the clouds with fire
                F#m
The whole earth shakes
                G#m	    C#m
The whole earth shakes

E
I see his love and mercy
C#m
Washing over all our sin
           F#m
The people sing
           B
The people sing

CHORUS:
        G#m A
Ho ---	sanna 
  	B  C#m
Ho ---	sanna
  A	       C#m   B
Hosanna in the highest

  	G#m A
Ho ---	sanna 
  	B  C#m
Ho ---	sanna
  A	       B     C#m
Hosanna in the highest


VERSE 2:
E
I see a generation 
C#m
Rising up to take their place
	      F#m
With selfless faith 
	      G#m
With selfless faith

E
I see a near revival
C#m
Staring as we pray and seek
	     F#m
We’re on our knees
	     B
We’re on our knees

CHORUS:
        G#m A
Ho ---	sanna 
  	B  C#m
Ho ---	sanna
  A	       C#m   B
Hosanna in the highest

  	G#m A
Ho ---	sanna 
  	B  C#m
Ho ---	sanna
  A	       B     
Hosanna in the highest

Instumental:
C#m    E     F#m     G#m

C#m    E     F#m     G#m


BRIDGE:
A			  B
Heal my heart and make it clean
E			     C#m
Open my eyes to the things I see
A			 B		 C#m
Show me how to love like you, have loved me
A				B
Break my heart for what breaks yours
E			 C#m
Everything I am for your kingdom cause
A		        B	   E
As I walk from earth in to eternity


CHORUS/OUTRO:
        G#m A
Ho ---	sanna 
  	B  C#m
Ho ---	sanna
  A	       C#m   B
Hosanna in the highest

  	G#m A
Ho ---	sanna 
  	B  C#m
Ho ---	sanna
  A	       B     E
Hosanna in the highest

        G#m A
Ho ---	sanna 
        B  C#m
Ho ---	sanna
  A	       C#m   B
Hosanna in the highest

  	G#m A
Ho ---	sanna 
  	B  C#m
Ho ---	sanna
  A	       B     C#m
Hosanna in the highest
  A	       B     E
Hosanna in the highest
            
Submit corrections


        Hosanna lessons Hard to play? Try these video lessons and learn fast Hosanna lessons
        
↑ Back to top | Tablatures and chords for acoustic guitar and electric guitar, ukulele, drums are parodies/interpretations of the original songs. You may use it for private study, scholarship, research or language learning purposes only