» » »

Hillsong United - Hosanna Tabs

Artists:  A B C D E F G H I J K L M N O P Q R S T U V W X Y Z # 

Hosanna Tabs

(ver. 4) Click to play this song!
Hillsong United
 Rating:
4.3/5 (24 votes)

 Hosanna lessons Tabs too difficult? Try these video lessons and learn fast
 
                [INTRO]
(DRUMS 1st)
   C#m                E              F#m          G#m
E|-------------------------------------------------------------------|
B|---------9---------9-------4-----4---------5---5---------4-------4-|
G|----9---------9h10-----4-------4-------6---------6---4-------4h6---|
D|-11---11---11--------6---6---6-----6L7---7---7-----6---6---6-------|
A|-------------------------------------------------------------------|
E|-------------------------------------------------------------------|

   C#m                   E              F#m            G#m         E
E|-------------------------------------------------7---------------9---7-|
B|-----------9---------9-------4-----4---------5-----5---------7-----7---|
G|------9---------9h11-----4-------4-------6---------------8-------------|
D|-6/11---11---11--------6---6---6-----6L7---7---5-----7L9---9---9-------|
A|-----------------------------------------------------------------------|
E|-----------------------------------------------------------------------|

[VERSE 1]
[CHORDS]
(E C#m F#m G#m C#m)
(E C#m F#m B)
E|---------------------------------------------|
B|---------9----------2--3---------------------|
G|----9-------------2------3-------------------|
D|-11---11--------4----------3-----------------|
A|---------------------------------------------|
E|---------------------------------------------|

E|---------------------------------------------|
B|------9-9---9-9---9---12------10-10-9--------|
G|----9-----9-----9---9-------9----------------|
D|-11----------------------11------------------|
A|---------------------------------------------|
E|---------------------------------------------|

E|---------------------------------------------|
B|---------9----------2--3---------------------|
G|----9-------------2------3-------------------|
D|-11---11--------4----------3-----------------|
A|---------------------------------------------|
E|---------------------------------------------|

[CHORUS]
E|------0---0----0---0-----0---0-----0---0-----|
B|----0---0-----0--0-----0---0-----0---0-------|
G|---------------------------------------------|
D|---------------------------------------------|
A|------------0--------2---------4-------------|
E|--4------------------------------------------|

E|------0---0-----0---0-----0---0-----0---0----|
B|----0---0-----0---0-----0---0-----0---0------|
G|---------------------------------------------|
D|---------------------------------------------|
A|--0---------4---------2---------2------------|
E|---------------------------------------------|

E|-----0---0----0---0-----0---0-----0---0----0---0-----0---0-|
B|---0---0-----0--0-----0---0-----0---0----0---0-----0---0---|
G|-----------------------------------------------------------|
D|-----------------------------------------------------------|
A|-----------0--------2---------4--------0---------2---------|
E|-4---------------------------------------------------------|

[PREVERSE]
E|---------------------------------------------|
B|------9-9---9-9---9---12------10-10-9--------|
G|----9-----9-----9---9-------9----------------|
D|-11----------------------11------------------|
A|---------------------------------------------|
E|---------------------------------------------|

[VERSE]
[CHORDS]
(E C#m F#m B)
E|---------------------------7-------------------|
B|---------9-------2-3-------9---------9---------|
G|----9----------2-----3-----9----9--------------|
D|-11---11-----4---------3-----11---11-----------|
A|-----------------------------------------------|
E|-----------------------------------------------|

E|-----------------------------------------------|
B|-----2-----2-----3-------3---------------------|
G|---2-----2-----2---3---3---3---3---------------|
D|-4-----4-----4-------3-------3-----------------|
A|-----------------------------------------------|
E|-----------------------------------------------|

[CHORUS 2]
G#m A B C#m
A  C#m B
G#m A B C#m
A B

[SOLO]
(SPLIT INTO 2 PARTS)

[G1]LEAD
[G2]OVERDUB

CHORDS:
(C#m E F#m G#m)

[G1]  
E|----------------------------------------------------|
B|-///12-12-12-12-12\9-7-9/12-12-12-12-12\9-7-9-------|
G|----------------------------------------------------|
D|----------------------------------------------------|
A|----------------------------------------------------|
E|----------------------------------------------------|
[G2]
E|----------------------------------------------------|
B|----------------------------------------------------|
G|----------------------------------------------------|
D|-///-9--9--9--9--9\6-4-6/-9--9--9--9--9\6-5-6-------|
A|----------------------------------------------------|
E|----------------------------------------------------|

[G1] 
E|----------------------------------------------------|
B|-/10-10-10-10-10-9-7-5-4-4-4-4L5-5-5L7-7------------|
G|----------------------------------------------------|
D|----------------------------------------------------|
A|----------------------------------------------------|
E|----------------------------------------------------|
[G2]
E|----------------------------------------------------|
B|----------------------------------------------------|
G|----------------------------------------------------|
D|-/-7--7--7--7--7-6-4-2-1-1-1-1L2-2-2L4-4------------|
A|----------------------------------------------------|
E|----------------------------------------------------|

[G1]
E|----------------------------------------------------|
B|-///12-12-12L14-12-12\9-7-9/12-12-12L14-12-12\9-7-9-|
G|----------------------------------------------------|
D|----------------------------------------------------|
A|----------------------------------------------------|
E|----------------------------------------------------|

[G2]
E|----------------------------------------------------|
B|----------------------------------------------------|
G|----------------------------------------------------|
D|-///-9--9--9L11--9--9\6-4-6/-9--9--9L11--9--9\6-4-6-|
A|----------------------------------------------------|
E|----------------------------------------------------|

[G1]
E|-------11----11----11-12/14-14-14-14-14-14-14-14~---|
B|-10-10----10----10----------------------------------|
G|----------------------------------------------------|
D|----------------------------------------------------|
A|----------------------------------------------------|
E|----------------------------------------------------|
[G2]
E|----------------------------------------------------|
B|----------------------------------------------------|
G|--------8-----8-----8--9/11-11-11-11-11-11-11-11~---|
D|--7--7-----7-----7----------------------------------|
A|----------------------------------------------------|
E|----------------------------------------------------|

[BRIDGE]
A B E C#m
A B C#m
A B E C#m
A B

E|--------9----------9---9---11-------|
B|------9---9------9---9--------9---9-|
G|----9-------9------------9------9---|
D|-11-----------11--------------------|
A|------------------------------------|
E|------------------------------------|

E|--------9---------------9------11---11-12-|
B|------9---9-----------9-----------9-------|
G|----9-------9-------9--------9------------|
D|-11-----------11-11-------11--------------|
A|------------------------------------------|
E|------------------------------------------|            
Submit corrections


        Hosanna lessons Hard to play? Try these video lessons and learn fast Hosanna lessons
        
↑ Back to top | Tablatures and chords for acoustic guitar and electric guitar, ukulele, drums are parodies/interpretations of the original songs. You may use it for private study, scholarship, research or language learning purposes only