» » »

Hillsong United - From The Inside Out Tabs

Artists:  A B C D E F G H I J K L M N O P Q R S T U V W X Y Z # 

From The Inside Out Tabs

(ver. 2) Click to play this song!
Hillsong United
 Rating:
4/5 (4 votes)

 From The Inside Out lessons Tabs too difficult? Try these video lessons and learn fast
 
                Hillsong United


Those chords are 100% correct. This tab is just for the Guitar 2 parts.

Standard Tuning – No capo

Intro riff:
E|-----------------12-------12-------------|
B|--------13-------------13----13-15-12----|
G|--12h14----14-14----12----------------12-|
D|-----------------------------------------|  (3x)
A|-----------------------------------------|
E|-----------------------------------------|

It’s easier to play this if you barre the 12th fret with your index finger the whole time.


Verse riff:
e|-------------------------------3---|
B|-----1---------1-------1-------3---|
G|---2---2-----0---0---0---0---0---0-|
D|---------2h3-----------------------|  (2x)
A|-0-----------------3---------------|
E|---------------------------3-------|

This is a riff I made up that sounds good when played over the verse chords. 
fame.”) The chord shapes are just Am, F, C and G.


Solo:
e|-8--8--8--8--8--8--8--8--8-8-8-8-8-8-8-8-12-12-12-12-12-12-12-12-13-13-13-13-13-13-13-13-|
B|-10-10-10-10-10-10-10-10-8-8-8-8-8-8-8-8-13-13-13-13-13-13-13-13-13-13-13-13-13-13-13-13-|
G|-----------------------------------------------------------------------------------------|
D|-----------------------------------------------------------------------------------------|
A|-----------------------------------------------------------------------------------------|
E|-----------------------------------------------------------------------------------------|

e|----------------------------------------------------------12-10-8---15-15-15-15----------|
B|-13-12-10h12-8-13-12-12-10-10h12------10-----10-------10--13-12-10--13-13-13-13----------|
G|---------------------------------10-9----9-7----7-7/9------------------------------------|
D|-----------------------------------------------------------------------------------------|
A|-----------------------------------------------------------------------------------------|
E|-----------------------------------------------------------------------------------------|

e|-15-15-15-15--12-10-8---15-15-15-15-15-15-15-15----17----17----17----17-------19---------|
B|-13-13-13-13--13-12-10--13-13-13-13-13-13-13-13/15----15----15----15----15/17------------|
G|-----------------------------------------------------------------------------------------|
D|-----------------------------------------------------------------------------------------|
A|-----------------------------------------------------------------------------------------|
E|-----------------------------------------------------------------------------------------|

Guitar 1 strums the chords F, C, Am, G, F, Am, G, Dm. It helps when playing both the
and the chords with the solo, to count out 1-2-3-4-5-6-7-8 in your head (once for each
in the solo, and twice for each chord). That may not make any sense right now, but
to the song and you'll see what I mean.
            
Submit corrections


        From The Inside Out lessons Hard to play? Try these video lessons and learn fast From The Inside Out lessons
        
↑ Back to top | Tablatures and chords for acoustic guitar and electric guitar, ukulele, drums are parodies/interpretations of the original songs. You may use it for private study, scholarship, research or language learning purposes only