» » »

Hillsong United - From The Inside Out Tabs

Artists:  A B C D E F G H I J K L M N O P Q R S T U V W X Y Z # 

From The Inside Out Tabs

(ver. 8) Click to play this song!
Hillsong United
 Rating:
4.3/5 (16 votes)

 From The Inside Out lessons Tabs too difficult? Try these video lessons and learn fast
 
                E A D G B E (CAPO 5)

[Intro]
    C9-              G-          D-
E|--------------12---------12----------------------|
B|--------13------------13----13-15-12-------------|
G|--12h14----14------12----------------12-(12L14)--| 4x
D|-------------------------------------------------|
A|-------------------------------------------------|
E|-------------------------------------------------|

[Verse]
 C9- G- D-  2x

[Pre-Chorus]
   Em-     C9-   G-      D-           Em-    C9-    G-      D-
E|----------------------------------------------------------------------|
B|-----0-------1-----0----------8---------0-------1-----0----------8----|
G|---0---0---0-----0---0------0---0-----0---0---0-----0---0------0------|
D|--------------------------9-------9--------------------------9--------|
A|---------3-------------10-------------------3-------------10----------|
E|-0-------------3--------------------0-------------3-------------------|

[Instrumental]
    C9-              G-          D-
E|--------------12---------12----------------------|
B|--------13------------13----13-15-12-------------|
G|--12h14----14------12----------------12-(12L14)--| 4x
D|-------------------------------------------------|
A|-------------------------------------------------|
E|-------------------------------------------------|

[Verse 2]
C9- G- D-  

[Pre-Chorus]
   Em-     C9-   G-      D-           Em-    C9-    G-      D-
E|----------------------------------------------------------------------|
B|-----0-------1-----0----------8---------0-------1-----0----------8----|
G|---0---0---0-----0---0------0---0-----0---0---0-----0---0------0------|
D|--------------------------9-------9--------------------------9--------|
A|---------3-------------10-------------------3-------------10----------|
E|-0-------------3--------------------0-------------3-------------------|

[Chorus]
   C9-  G-   Em-  D-       C9-  Em-  D-       Am-
E|------3----0----------2-------0----------2--0------|
B|-3----3----0--------3----3----0--------3----1------|
G|-0----0----0------2------0----0------2------2------|
D|-2----0----2----0--------2----2----0--------2------|
A|-3----2----2-------------3----2-------------0------|
E|------3----0------------------0--------------------|

[Instrumental]
    C9-              G-          D-
E|--------------12---------12----------------------|
B|--------13------------13----13-15-12-------------|
G|--12h14----14------12----------------12-(12L14)--| 4x
D|-------------------------------------------------|
A|-------------------------------------------------|
E|-------------------------------------------------|

[Verse 3]
C9- G- D-  

[Pre-Chorus]
   Em-     C9-   G-      D-           Em-    C9-    G-      D-
E|----------------------------------------------------------------------|
B|-----0-------1-----0----------8---------0-------1-----0----------8----|
G|---0---0---0-----0---0------0---0-----0---0---0-----0---0------0------|
D|--------------------------9-------9--------------------------9--------|
A|---------3-------------10-------------------3-------------10----------|
E|-0-------------3--------------------0-------------3-------------------|

[Chorus]
   C9-  G-   Em-  D-       C9-  Em-  D-       Am-
E|------3----0----------2-------0----------2--0------|
B|-3----3----0--------3----3----0--------3----1------|
G|-0----0----0------2------0----0------2------2------|
D|-2----0----2----0--------2----2----0--------2------|
A|-3----2----2-------------3----2-------------0------|
E|------3----0------------------0--------------------|

[Bridge]
Em- C- G- D- 2x

G- C- D- Em-
C- D- C- D-

[Solo]
(On this part,the lead guitar solo is not affected by capo,the numbers
shown are the exactly fret...)

   C9-
E|----------------------------------------------|
B|-13-13-13-13-13-13-13-13-13-13-13-13-13-13-13-|
G|-14-14-14-14-14-14-14-14-12-12-12-12-14-14-14-|
D|----------------------------------------------|
A|----------------------------------------------|
E|----------------------------------------------|

       G-
E|----12-12-12-12-12-12-12-12-13-13-13-13-12-12-13-------------|
B|-///13-13-13-13-13-13-13-13-13-13-13-13-13-13-13\\\----------|
G|-------------------------------------------------------------|
D|-------------------------------------------------------------|
A|-------------------------------------------------------------|
E|-------------------------------------------------------------|

   Em-                                   D-
E|--------------------------------------------------------------|
B|-13-10-12-10-12------13-12-10-10-12------10-----10------------|
G|----------------12~~----------------10-9----9-7----7----------|
D|-----------------------------------------------------9b(10)r9-|
A|--------------------------------------------------------------|
E|--------------------------------------------------------------|

              C9-                  Em-
                             (12x)                (12x)
E|------------12-12-12-12-12--15---12-12-12-12-12--15-----------|
B|-10L13-13-5-13-13-12-12-13--17---13-13-12-12-13--17-----------|
G|--------------------------------------------------------------|
D|--------------------------------------------------------------|
A|--------------------------------------------------------------|
E|--------------------------------------------------------------|


   D-                                       Am-
E|----17~----17~----17~----17~----17~-------19~~~-|
B|-15-----15-----15-----15-----15-----15L17-------|
G|------------------------------------------------|
D|------------------------------------------------|
A|------------------------------------------------|
E|------------------------------------------------|

[Chorus]
   C9-  G-   Em-  D-       C9-  Em-  D-       Am-
E|------3----0----------2-------0----------2--0------|
B|-3----3----0--------3----3----0--------3----1------|
G|-0----0----0------2------0----0------2------2------|
D|-2----0----2----0--------2----2----0--------2------|
A|-3----2----2-------------3----2-------------0------|
E|------3----0------------------0--------------------|

[Bridge]
Em- C- G- D- 2x

G- C- D- Em-
C- D- C- D-

[Coda]
   C9-
E|----------------------5-3-0--------|
B|---3---0--------------------0------|
G|-----5---0--------------------2----|
D|-----------2--------------------2--| 6x
A|-3-----------3-3L5-5---------------|
E|-----------------------------------|

   C9-
E|---------------0---|
B|---3---0-----2-----|
G|-----5---0---------|
D|-----------2-------|
A|-3-----------------|
E|-------------------|            
Submit corrections


        From The Inside Out lessons Hard to play? Try these video lessons and learn fast From The Inside Out lessons
        
↑ Back to top | Tablatures and chords for acoustic guitar and electric guitar, ukulele, drums are parodies/interpretations of the original songs. You may use it for private study, scholarship, research or language learning purposes only