» » »

Hed P.E. - The Meadow Tabs

Artists:  A B C D E F G H I J K L M N O P Q R S T U V W X Y Z # 

The Meadow Tabs

(ver. 3) Click to play this song!
Hed P.E.
 Rating:
4/5 (4 votes)

 The Meadow lessons Tabs too difficult? Try these video lessons and learn fast
 
                Standard Tuning (low to high) E A D g b e

Chords: (low to high)

Bm:  2 2 4 4 3 2

Gm:  3 5 5 3 3 3



Intro (about 80 bpm)
      Bm
e||-------------------------------------||
b||---3---------------------------------||
g||.--4--------------------------------.||
D||.--4-----------------4-5-4---4-5----.||
A||---2-----------------------0---------||
E||-------------------3-----------------||
 ||   1 e + a 2 e + a 3 e + a 4 e + a   ||
g||-------------------------------------||
D||.-----------------------------------.||
A||.--2-----------------------0--------.||
E||-------------------3-----------------||


The rest of the song alternates
between a Bm and Gm chord, like so:

Bm |  |  |  Gm |  |  |




g||--------------------|-------------------||
D||.--------------0----|------------------.||
A||.--2----------------|--------------0---.||
E||--------------------|--3----------------||
      1 & 2 & 3 & 4 &     1 & 2 & 3 & 4 &
            
Submit corrections


        The Meadow lessons Hard to play? Try these video lessons and learn fast The Meadow lessons
        
↑ Back to top | Tablatures and chords for acoustic guitar and electric guitar, ukulele, drums are parodies/interpretations of the original songs. You may use it for private study, scholarship, research or language learning purposes only