Home » H » Hed P.E. »

Hed P.E. - The Meadow Bass

Artists:  A B C D E F G H I J K L M N O P Q R S T U V W X Y Z # 

The Meadow Bass

(ver. 1) Click to play this song!
Hed P.E.
 Rating:
4/5 (4 votes)
                
    (0:01)
    Intro:
    G|-------------------------|
    D|-------------------------|  x1 I dont know how he does it but you can
    A|-------------------------|     hear the bass behind the guitar on
    E|-3-5-7--3-5-7--3-5-7--3-5|     the intro real quiet.

    (0:10)
    Verse:
    "I don't ask why....
    G|---------------||---------------|
    D|---------------||---------------|  X2
    A|-2~---5--------||-2~---5--------|
    E|--------3~---2-||--------3~---2-|

    (0:32)
    Chorus:
    "But I've got nowhere else to go..."
    G|---|----------|----------|
    D|---|----------|----------|   x7
    A|-2~|----------|----------|
    E|---|-3-5-7~---|-3-5-7~---|
       ^only play once at beginning of each chorus


    (0:53)
    Verse:
    G|---------------||---------------|
    D|---------------||---------------|
    A|-2~---5--------||-2~---5--------|
    E|--------3~---2-||--------3~---2-|


     *Just keep repeating verse /chorus as necessary until

    (2:15)
    G|R--------------|
    D|-----E---------|
    A|----------S----|
    E|--------------T|

     (2:24)
     Verse:
    G|---------------||---------------|
    D|---------------||---------------|
    A|-2~---5--------||-2~---5--------|
    E|--------3~---2-||--------3~---2-|

     This is like a 9 minute song.  There is no more vocals from the singer    after 
 Just repeat verse/chorus as long as you want to play it.  This tab sounds fine to me.  If 
want to add changes feel free or hit me up.
            
Submit corrections

↑ Back to top | Tablatures and chords for acoustic guitar and electric guitar, ukulele, drums are parodies/interpretations of the original songs. You may use it for private study, scholarship, research or language learning purposes only