» » »

Hed P.E. - Bartender Tabs

Artists:  A B C D E F G H I J K L M N O P Q R S T U V W X Y Z # 

Bartender Tabs

(ver. 1) Click to play this song!
Hed P.E.
 Rating:
4/5 (4 votes)

 Bartender lessons Tabs too difficult? Try these video lessons and learn fast
 
                

------------------------------------------------------------------------------|
------------------------------------------------------------------------------|
-12h13p12p11h12----11h12p11p10h11-----9h10p9p7-9b-7-----6h7p6p5h6-------------|
------------------------------------------------------------------------------|
------------------------------------------------------------------------------|
------------------------------------------------------------------------------|
 guitar 2:

-----12^-------0--------0-------0---------------------------------------------|
-----12^-------11-------8-------1---------------------------------------------|
-----12^-------12-------9-------2---------------------------------------------|
---------------12-------9-------2---------------------------------------------|
-----------10--------7-------0------------------------------------------------|
-0----------------------------------------------------------------------------|
  both guitars:

------------------------------------------------------------------------------|
------------------------------------------------------------------------------|
------------------------------------------------------------------------------|
------------------------------------------------------------------------------|
----7-----7-------------------------------------------------------------------|
-0-----0------0--3--3--0-3-0--------------------------------------------------|
 break:

---------------------------------------0-------0------------------------------|
---------------------------------------0-------0------------------------------|
------------------------------------------------------------------------------|
-7-7-7-7-7-7-7-7-7-7-7-7-7-7-7-7---5-5-----5-5--------------------------------|
-7-7-7-7-7-7-7-7-7-7-7-7-7-7-7-7---5-5-----5-5--------7---7-------------------|
-5-5-5-5-5-5-5-5-5-5-5-5-5-5-5-5---3-3-----2-2------0---0---0-3--3-0-3-0------|
            
Submit corrections


        Bartender lessons Hard to play? Try these video lessons and learn fast Bartender lessons
        
↑ Back to top | Tablatures and chords for acoustic guitar and electric guitar, ukulele, drums are parodies/interpretations of the original songs. You may use it for private study, scholarship, research or language learning purposes only