» » »

Hed P.E. - The Meadow Tabs

Artists:  A B C D E F G H I J K L M N O P Q R S T U V W X Y Z # 

The Meadow Tabs

(ver. 2) Click to play this song!
Hed P.E.
 Rating:
4/5 (4 votes)

 The Meadow lessons Tabs too difficult? Try these video lessons and learn fast
 
                
Drop B (B,F#,B,E,G#,C#)

---10---12-12p10----15--13--12-12p10---
---10----------------------------------
---10----------------------------------
---------------------------------------
---------------------------------------
---------------------------------------

-----------------------
-----------------------
-----2-3-2---2-3-2-----
-------------------0---
---1-------3-----------
-----------------------

Chords:
---1-1-1-1-1-1-1---1-1-1-1-1-1-1---
---1-1-1-1-1-1-1---3-3-3-3-3-3-3---
---2-2-2-2-2-2-2---2-2-2-2-2-2-2---
---3-3-3-3-3-3-3---0-0-0-0-0-0-0---
-----------------------------------
-----------------------------------

Solo:
-------------------5-3-------------------------------
---3---5h6p5h6/8-------3---5h6p5h6/8---6h8p6-5h6p5---
-----------------------------------------------------
-----------------------------------------------------
-----------------------------------------------------
-----------------------------------------------------

------------------5p3-3p1-1-1-1-1h3p0-0h1-----
3---8p6-6h8-8-8---------------------------3---
----------------------------------------------
----------------------------------------------
----------------------------------------------
----------------------------------------------

Other chords:
---1-1-1-1-1-1h3-3---1-1-1-1-1-1h3-3---
---1-1-1-1-1-1-1-1---3-3-3-3-3-3-3-3---
---2-2-2-2-2-2-2-2---2-2-2-2-2-2-2-2---
---3-3-3-3-3-3-3-3---0-0-0-0-0-0-0-0---
---------------------------------------
---------------------------------------
            
Submit corrections


        The Meadow lessons Hard to play? Try these video lessons and learn fast The Meadow lessons
        
↑ Back to top | Tablatures and chords for acoustic guitar and electric guitar, ukulele, drums are parodies/interpretations of the original songs. You may use it for private study, scholarship, research or language learning purposes only