» » »

Hed P.E. - Firsty Tabs

Artists:  A B C D E F G H I J K L M N O P Q R S T U V W X Y Z # 

Firsty Tabs

(ver. 2) Click to play this song!
Hed P.E.
 Rating:
4/5 (4 votes)

 Firsty lessons Tabs too difficult? Try these video lessons and learn fast
 
                Hed P.E. - Firsty
Album - self titled
Tuning: Drop B (B,F#,B,E,G#,C#)

this song is pretty complicated, it would help if you listened 
to the song first and go along with that.

fill at end off bass intro
(start off with low volume then slowly swell up to full while playing the 10)
C#|---10--------|
G#|-------------|
 E|-------------|
 B|------6------|
F#|-------------|
 B|-------------|

Intro (after bass intro)
C#|-----------------------------------------------|
G#|-----------------------------------------------|
 E|-------------7-------7-7-7-7-----7-----6-6-6-6-|
 B|------3------7---3---7-7-7-7---3-7-0-3-6-6-6-6-|
F#|----0-3--0-0-5-0-3-0-5-5-5-5-0-3-5-0-3-4-4-4-4-|
 B|----0-3--0-0---0-3-0---------0-3---0-3---------|

Verse: Same as Intro But palm muted

Pre Chorus :"and who the F**K are you!?"
C#|---------------------------------|
G#|---------------------------------|
 E|---7-7-x-7-7-x-7-/-8-8-x-8-8-x-8-|
 B|---7-7-x-7-7-x-7-/-8-8-x-8-8-x-8-|
F#|---5-5-x-5-5-x-5-/-6-6-x-6-6-x-6-|
 B|---------------------------------|

chorus:"you Must be Confused!" (use with slight wah)
C#|----------|
G#|----------|
 E|---7------|
 B|---7-5-3--|
F#|---5-5-3--|
 B|-----5-3--|

After chorus:
C#|----------------------------------------------------|
G#|----------------------------------------------------|
 E|-------7-7-7-7-----6-6-6-6-----7-7-7-7--------------|
 B|---0-3-7-7-7-7-0-3-6-6-6-6-0-3-7-7-7-7-0-3-/6-6-6-6-|
F#|---0-3-5-5-5-5-0-3-4-4-4-4-0-3-5-5-5-5-0-3-/6-6-6-6-|
 B|---0-3---------0-3---------0-3---------0-3-/6-6-6-6-|

Guitar Bridge (clean)
C#|---------|
G#|---------|
E|--8-8-8-8-|
B|--x-x-x-x-|
F#|-6-6-6-6-|
B|----------|  X8

Song order:
Bass intro
Fill
Guitar intro
Verse
Pre-chorus
Verse
Pre-chorus
Chorus
After Chorus
Bass /Guitar bridge
guitar intro
chorus
After chorus
END

Feel free to ask questions
            
Submit corrections


        Firsty lessons Hard to play? Try these video lessons and learn fast Firsty lessons
        
↑ Back to top | Tablatures and chords for acoustic guitar and electric guitar, ukulele, drums are parodies/interpretations of the original songs. You may use it for private study, scholarship, research or language learning purposes only