» » »

Hed P.E. - Firsty Tabs

Artists:  A B C D E F G H I J K L M N O P Q R S T U V W X Y Z # 

Firsty Tabs

(ver. 1) Click to play this song!
Hed P.E.
 Rating:
4/5 (4 votes)

 Firsty lessons Tabs too difficult? Try these video lessons and learn fast
 
                (Hed)pe

Verse :
-----------------------------------------
-----------------------------------------
-----------------------------------------
-------4------4-4-4-------4------3-3-3---
---0-2-2--0-2-2-2-2---0-2-2--0-2-1-1-1---
---0-2----0-2---------0-2----0-2---------

-----------------------
-----------------------
---4---4-------5---5---
-----------------------
---2---2-------3---3---
-----------------------

Chorus :
-----------------------------------
-----------------------------------
-----------------------------------
---7-7-7-7-4-4-4-4-3-3-3-3-3-3-3---
---7-7-7-7-4-4-4-4-3-3-3-3-3-3-3---
---5-5-5-5-2-2-2-2-1-1-1-1-1-1-1---
            
Submit corrections


        Firsty lessons Hard to play? Try these video lessons and learn fast Firsty lessons
        
↑ Back to top | Tablatures and chords for acoustic guitar and electric guitar, ukulele, drums are parodies/interpretations of the original songs. You may use it for private study, scholarship, research or language learning purposes only