» » »

Hed P.E. - Feel Good Tabs

Artists:  A B C D E F G H I J K L M N O P Q R S T U V W X Y Z # 

Feel Good Tabs

(ver. 2) Click to play this song!
Hed P.E.
 Rating:
4/5 (4 votes)

 Feel Good lessons Tabs too difficult? Try these video lessons and learn fast
 
                                                  FEEL GOOD
                                 by (hed)p.e.




  Intro - Verse bass line
  Hawk
G :----------------------------------------------------------------|
D :----------------------------------------------------------------|
A :----------------------------------------------------------------|
E :---3-4----5--------3-4-----4-3----------------------------------|
B :-------------4--------------------------------------------------|
   
  Westyle
  Right hand tapping
B :----------------------------------------------------------------------|
F#:------------------------------------------------------------t19-------|
D :t20t20t20t20t20t20t20t20t20t20t20t20t20t20t20t20t20t20t20t20---t20t18-|
A :----------------------------------------------------------------------|
E :----------------------------------------------------------------------|
B :----------------------------------------------------------------------|
  
  MAIN havy Riff Wes and Chad
   "What is the worth... "
B :----------------------------------------------------------------|
F#:----------------------------------------------------------------|
D :-----12-12--12-------11--11-------------------------------------|
A :----------------------------------------------------------------|
E :-----10-10--10-------9---9--------------------------------------|
B :-0-------------0---0-------0------------------------------------|

   Chad - second Verse
   clean 
B :----------------------------------------------------------------|
F#:----------------------------------------------------------------|
D :-----11-----11--10----11----11-10-------------------------------|
A :-----12-----12--11----12----12-11-------------------------------|
E :----------------------------------------------------------------|
B :----------------------------------------------------------------|
 
  CHORUS 
    
  Wes and Chad                  "the sky is falling ... "
B :-------------------------------|--------------------------------------|
F#:-------------------------------|--------------------------------------|
D :-------------------------------|--------------------------------------|
A :-2-------8------8-7---7-8------|-2-------8------8-7----7-8--------5/8-|
E :-2-------8------8-7---7-8------|-2-------8------8-7----7-8--------5/8-|
B :-0-----0-6------6-5---5-6------|-0-------6------6-5----5-6---0-0--3/6-|
  
  End of the last main riff part
   Chad                            Westyle
B :------------------------------|----------------------------------|
F#:------------------------------|----------------------------------|
D :-----12-12--12-------11--11---|-----16-16--16-------15---15------|
A :------------------------------|----------------------------------|
E :-----10-10--10-------9---9----|-----14-14--14-------13---13------|
B :-0-------------0---0-------0--|-0-------------0---0----------0---|
            
Submit corrections


        Feel Good lessons Hard to play? Try these video lessons and learn fast Feel Good lessons
        
↑ Back to top | Tablatures and chords for acoustic guitar and electric guitar, ukulele, drums are parodies/interpretations of the original songs. You may use it for private study, scholarship, research or language learning purposes only