Home » H » Hed P.E. »

Hed P.E. - Feel Good Bass

Artists:  A B C D E F G H I J K L M N O P Q R S T U V W X Y Z # 

Feel Good Bass

(ver. 1) Click to play this song!
Hed P.E.
 Rating:
4/5 (4 votes)
                This is a great song by hed pe.  
Tuning:EADG

Verse
G----------------------------------------------------------------------------|
D----------------------------------------------------------------------------|
A----------------------------------------------------------------------------|
E-------3-5-------5-4-------3-5-------54-------------------------------------|

	Chorus (Well is it right?)
G-----------------------------------------|
D-----------------------------------------|
A-----------------------------------------|
E--0-2---------2-1------0-2-----------21--|

	Verse 2
G------------------------------------------------------------------------|
D------------------------------------------------------------------------|
A------------------------------------------------------------------------|
E-------5-7-------7-6-------5-7-------76---------------------------------|

	Chorus 2(The sky is falling, I don’t care)
G---------------------------------------------------------------------|
D---------------------------------------------------------------------|
A---------------------------------------------------------------------|
E--3--2-4------1--1-1-1-22-1------------------------------------------|

Order

Verse x4
Chorus x2
Verse 2 x4
Chorus x2
Chorus 2 x4
Middle (Hey, let me get some of that jack daniels…)/same as verse 2
Chorus x4
Verse 2 x4 (It wont stop raining…)
Chorus x2
Chorus 2 x6
Chorus x2
Verse (start playing after serj stops singing and fade out)

This was my first tab so some of it might be a little off but I think its right for the most part.e-mail me if its wrong
            
Submit corrections

↑ Back to top | Tablatures and chords for acoustic guitar and electric guitar, ukulele, drums are parodies/interpretations of the original songs. You may use it for private study, scholarship, research or language learning purposes only