» » »

Halsey - Gasoline Tabs

Artists:  A B C D E F G H I J K L M N O P Q R S T U V W X Y Z # 

Gasoline Tabs

(ver. 3) Click to play this song!
Halsey
 Rating:
2/5 (30 votes)

 Gasoline  lessons Tabs too difficult? Try these video lessons and learn fast
 
                Intro:

e|------------------------------------|
B|---5---5----3-----------------------|
G|-2---2---2--------------------------|x6
D|------------------------------------|
A|------------------------------------|
E|------------------------------------|

e|------------------------------------|
B|--------3--5--3----------3--5--3----|
G|--2--5----------5--2--5-------------|x2
D|------------------------------------|
A|------------------------------------|
E|------------------------------------|

Verse 1 & 2:

"Are you insane..."
e|-------------------------------------------0-----------0------------------|
B|--3--3--1--3----1--3--1--3--1-----------3-----3--1--3-----3--1--3--1------|
G|--------------2----------------2--2--2--------------------------------2---|
D|--------------------------------------------------------------------------|
A|--------------------------------------------------------------------------|
E|--------------------------------------------------------------------------|

"Just to pour..." / "Are you high enough..."
e|-----------0-----------0--------------------------0-----------0----------------|
B|--------3-----3--1--3-----3--1--3--1-----------3-----3--1--3-----3--1--3--1----|
G|--2--2--------------------------------2--2--2--------------------------------2-|
D|-------------------------------------------------------------------------------|x6
A|-------------------------------------------------------------------------------|
E|-------------------------------------------------------------------------------|

Chorus:

"And all the people say.."
e|--------------------3--3--3--0-----0-----------------0--------------------0-----------|
B|--------------1-----------------3-----3--1--------3-----3--1-----------3-----3--1-----|
G|--2--2--2--2-----2--------------------------2--2--------------2--2--2--------------2--|
D|--------------------------------------------------------------------------------------|
A|--------------------------------------------------------------------------------------|
E|--------------------------------------------------------------------------------------|

"With your face..."
e|--------3--3--3--0-----0--------------0--------------------0---------------|
B|--------------------3-----3--1-----3-----3--1-----------3-----3--1---------|
G|--2--2--------------------------2--------------2--2--2--------------2------|
D|---------------------------------------------------------------------------|
A|---------------------------------------------------------------------------|
E|---------------------------------------------------------------------------|

"Oh oh oh oh oh oh..."
e|-----------------3--------------------0--0-----------------3--------------------------|
B|-----1-----1--------1--3--1--1--3--1-----------1-----1--------1--3--1--1--3--1--1--0--|
G|--2-----2-----2-----------------------------2-----2-----2-----------------------------|
D|--------------------------------------------------------------------------------------|
A|--------------------------------------------------------------------------------------|
E|--------------------------------------------------------------------------------------|

"Well my heart is..."
e|--------3--0----------------------------|
B|--------------3--1--3--1----------------|
G|--2--2--------------------2--0----------|
D|----------------------------------------|
A|----------------------------------------|
E|----------------------------------------|

Verse 3:

"Are you deranged..."
e|-------------------------------------------0-----------0------------------|
B|--3--3--1--3----1--3--1--3--1-----------3-----3--1--3-----3--1--3--1------|
G|--------------2----------------2--2--2--------------------------------2---|
D|--------------------------------------------------------------------------|
A|--------------------------------------------------------------------------|
E|--------------------------------------------------------------------------|

"Do you call yourself..."
e|-----------0-----------0-----------------------0-----------0------------------|
B|--------3-----3--1--3-----3--1--3--1--------3-----3--1--3-----3--1--3--1------|
G|--2--2--------------------------------2--2--------------------------------2---|
D|------------------------------------------------------------------------------|
A|------------------------------------------------------------------------------|
E|------------------------------------------------------------------------------|

Chorus:

"And all the people say.."
e|--------------------3--3--3--0-----0-----------------0--------------------0-----------|
B|--------------1-----------------3-----3--1--------3-----3--1-----------3-----3--1-----|
G|--2--2--2--2-----2--------------------------2--2--------------2--2--2--------------2--|
D|--------------------------------------------------------------------------------------|
A|--------------------------------------------------------------------------------------|
E|--------------------------------------------------------------------------------------|

"With your face..."
e|--------3--3--3--0-----0--------------0--------------------0---------------|
B|--------------------3-----3--1-----3-----3--1-----------3-----3--1---------|
G|--2--2--------------------------2--------------2--2--2--------------2------|
D|---------------------------------------------------------------------------|
A|---------------------------------------------------------------------------|
E|---------------------------------------------------------------------------|

"Oh oh oh oh oh oh..."
e|-----------------3--------------------0--0-----------------3--------------------------|
B|-----1-----1--------1--3--1--1--3--1-----------1-----1--------1--3--1--1--3--1--1--0--|
G|--2-----2-----2-----------------------------2-----2-----2-----------------------------|
D|--------------------------------------------------------------------------------------|
A|--------------------------------------------------------------------------------------|
E|--------------------------------------------------------------------------------------|

"Well my heart is..."
e|--------3--0------------------------|
B|--------------3--1--3--1------------|
G|--2--2--------------------2--0------|
D|------------------------------------|
A|------------------------------------|
E|------------------------------------|
            
Submit corrections


        Gasoline  lessons Hard to play? Try these video lessons and learn fast Gasoline  lessons
        
↑ Back to top | Tablatures and chords for acoustic guitar and electric guitar, ukulele, drums are parodies/interpretations of the original songs. You may use it for private study, scholarship, research or language learning purposes only